  0
SECTION
  2
HEADER
  9
$ACADVER
  1
AC1015
  9
$ACADMAINTVER
 70
     6
  9
$DWGCODEPAGE
  3
ANSI_1252
  9
$INSBASE
 10
0.0
 20
0.0
 30
0.0
  9
$EXTMIN
 10
0.0
 20
0.0
 30
0.0
  9
$EXTMAX
 10
4200.0
 20
4200.0
 30
0.0
  9
$LIMMIN
 10
0.0
 20
0.0
  9
$LIMMAX
 10
4200.0
 20
4200.0
  9
$ORTHOMODE
 70
     0
  9
$REGENMODE
 70
     1
  9
$FILLMODE
 70
     1
  9
$QTEXTMODE
 70
     0
  9
$MIRRTEXT
 70
     1
  9
$LTSCALE
 40
1.0
  9
$ATTMODE
 70
     1
  9
$TEXTSIZE
 40
3.5
  9
$TRACEWID
 40
1.0
  9
$TEXTSTYLE
  7
STANDARD
  9
$CLAYER
  8
0
  9
$CELTYPE
  6
ByLayer
  9
$CECOLOR
 62
   256
  9
$CELTSCALE
 40
1.0
  9
$DISPSILH
 70
     0
  9
$DIMSCALE
 40
1.0
  9
$DIMASZ
 40
3.556
  9
$DIMEXO
 40
1.0
  9
$DIMDLI
 40
3.75
  9
$DIMRND
 40
0.0
  9
$DIMDLE
 40
0.0
  9
$DIMEXE
 40
1.0
  9
$DIMTP
 40
0.0
  9
$DIMTM
 40
0.0
  9
$DIMTXT
 40
3.5
  9
$DIMCEN
 40
2.5
  9
$DIMTSZ
 40
0.0
  9
$DIMTOL
 70
     0
  9
$DIMLIM
 70
     0
  9
$DIMTIH
 70
     1
  9
$DIMTOH
 70
     1
  9
$DIMSE1
 70
     0
  9
$DIMSE2
 70
     0
  9
$DIMTAD
 70
     1
  9
$DIMZIN
 70
     1
  9
$DIMBLK
  1

  9
$DIMASO
 70
     1
  9
$DIMSHO
 70
     1
  9
$DIMPOST
  1

  9
$DIMAPOST
  1

  9
$DIMALT
 70
     0
  9
$DIMALTD
 70
     3
  9
$DIMALTF
 40
0.0393700787
  9
$DIMLFAC
 40
1.0
  9
$DIMTOFL
 70
     1
  9
$DIMTVP
 40
0.0
  9
$DIMTIX
 70
     0
  9
$DIMSOXD
 70
     0
  9
$DIMSAH
 70
     0
  9
$DIMBLK1
  1

  9
$DIMBLK2
  1

  9
$DIMSTYLE
  2
ISO-25
  9
$DIMCLRD
 70
     0
  9
$DIMCLRE
 70
     0
  9
$DIMCLRT
 70
     0
  9
$DIMTFAC
 40
1.0
  9
$DIMGAP
 40
1.524
  9
$DIMJUST
 70
     0
  9
$DIMSD1
 70
     0
  9
$DIMSD2
 70
     0
  9
$DIMTOLJ
 70
     0
  9
$DIMTZIN
 70
     1
  9
$DIMALTZ
 70
     0
  9
$DIMALTTZ
 70
     0
  9
$DIMUPT
 70
     0
  9
$DIMDEC
 70
     2
  9
$DIMTDEC
 70
     2
  9
$DIMALTU
 70
     2
  9
$DIMALTTD
 70
     3
  9
$DIMTXSTY
  7
STANDARD
  9
$DIMAUNIT
 70
     0
  9
$DIMADEC
 70
     2
  9
$DIMALTRND
 40
0.0
  9
$DIMAZIN
 70
     0
  9
$DIMDSEP
 70
    44
  9
$DIMATFIT
 70
     3
  9
$DIMFRAC
 70
     0
  9
$DIMLDRBLK
  1

  9
$DIMLUNIT
 70
     2
  9
$DIMLWD
 70
    -2
  9
$DIMLWE
 70
    -2
  9
$DIMTMOVE
 70
     0
  9
$LUNITS
 70
     2
  9
$LUPREC
 70
     2
  9
$SKETCHINC
 40
1.0
  9
$FILLETRAD
 40
0.0
  9
$AUNITS
 70
     0
  9
$AUPREC
 70
     2
  9
$MENU
  1
.
  9
$ELEVATION
 40
0.0
  9
$PELEVATION
 40
0.0
  9
$THICKNESS
 40
0.0
  9
$LIMCHECK
 70
     0
  9
$CHAMFERA
 40
0.0
  9
$CHAMFERB
 40
0.0
  9
$CHAMFERC
 40
0.0
  9
$CHAMFERD
 40
0.0
  9
$SKPOLY
 70
     0
  9
$TDCREATE
 40
2461155.344567697
  9
$TDUCREATE
 40
2461155.261234364
  9
$TDUPDATE
 40
2461155.344571239
  9
$TDUUPDATE
 40
2461155.261237905
  9
$TDINDWG
 40
0.0000000116
  9
$TDUSRTIMER
 40
0.0000000116
  9
$USRTIMER
 70
     1
  9
$ANGBASE
 50
0.0
  9
$ANGDIR
 70
     0
  9
$PDMODE
 70
     0
  9
$PDSIZE
 40
-1.0
  9
$PLINEWID
 40
0.0
  9
$SPLFRAME
 70
     0
  9
$SPLINETYPE
 70
     6
  9
$SPLINESEGS
 70
     8
  9
$HANDSEED
  5
53F
  9
$SURFTAB1
 70
     6
  9
$SURFTAB2
 70
     6
  9
$SURFTYPE
 70
     6
  9
$SURFU
 70
     6
  9
$SURFV
 70
     6
  9
$UCSBASE
  2

  9
$UCSNAME
  2

  9
$UCSORG
 10
0.0
 20
0.0
 30
0.0
  9
$UCSXDIR
 10
1.0
 20
0.0
 30
0.0
  9
$UCSYDIR
 10
0.0
 20
1.0
 30
0.0
  9
$UCSORTHOREF
  2

  9
$UCSORTHOVIEW
 70
     0
  9
$UCSORGTOP
 10
0.0
 20
0.0
 30
0.0
  9
$UCSORGBOTTOM
 10
0.0
 20
0.0
 30
0.0
  9
$UCSORGLEFT
 10
0.0
 20
0.0
 30
0.0
  9
$UCSORGRIGHT
 10
0.0
 20
0.0
 30
0.0
  9
$UCSORGFRONT
 10
0.0
 20
0.0
 30
0.0
  9
$UCSORGBACK
 10
0.0
 20
0.0
 30
0.0
  9
$PUCSBASE
  2

  9
$PUCSNAME
  2

  9
$PUCSORG
 10
0.0
 20
0.0
 30
0.0
  9
$PUCSXDIR
 10
1.0
 20
0.0
 30
0.0
  9
$PUCSYDIR
 10
0.0
 20
1.0
 30
0.0
  9
$PUCSORTHOREF
  2

  9
$PUCSORTHOVIEW
 70
     0
  9
$PUCSORGTOP
 10
0.0
 20
0.0
 30
0.0
  9
$PUCSORGBOTTOM
 10
0.0
 20
0.0
 30
0.0
  9
$PUCSORGLEFT
 10
0.0
 20
0.0
 30
0.0
  9
$PUCSORGRIGHT
 10
0.0
 20
0.0
 30
0.0
  9
$PUCSORGFRONT
 10
0.0
 20
0.0
 30
0.0
  9
$PUCSORGBACK
 10
0.0
 20
0.0
 30
0.0
  9
$USERI1
 70
     0
  9
$USERI2
 70
     0
  9
$USERI3
 70
     0
  9
$USERI4
 70
     0
  9
$USERI5
 70
     0
  9
$USERR1
 40
0.0
  9
$USERR2
 40
0.0
  9
$USERR3
 40
0.0
  9
$USERR4
 40
0.0
  9
$USERR5
 40
0.0
  9
$WORLDVIEW
 70
     1
  9
$SHADEDGE
 70
     3
  9
$SHADEDIF
 70
    70
  9
$TILEMODE
 70
     1
  9
$MAXACTVP
 70
    64
  9
$PINSBASE
 10
0.0
 20
0.0
 30
0.0
  9
$PLIMCHECK
 70
     0
  9
$PEXTMIN
 10
1.0000000000E+20
 20
1.0000000000E+20
 30
1.0000000000E+20
  9
$PEXTMAX
 10
-1.0000000000E+20
 20
-1.0000000000E+20
 30
-1.0000000000E+20
  9
$PLIMMIN
 10
0.0
 20
0.0
  9
$PLIMMAX
 10
420.0
 20
297.0
  9
$UNITMODE
 70
     0
  9
$VISRETAIN
 70
     1
  9
$PLINEGEN
 70
     0
  9
$PSLTSCALE
 70
     1
  9
$TREEDEPTH
 70
  3020
  9
$CMLSTYLE
  2
Standard
  9
$CMLJUST
 70
     0
  9
$CMLSCALE
 40
20.0
  9
$PROXYGRAPHICS
 70
     1
  9
$MEASUREMENT
 70
     1
  9
$CELWEIGHT
370
    -1
  9
$ENDCAPS
280
     0
  9
$JOINSTYLE
280
     0
  9
$LWDISPLAY
290
     1
  9
$INSUNITS
 70
     4
  9
$HYPERLINKBASE
  1

  9
$STYLESHEET
  1

  9
$XEDIT
290
     1
  9
$CEPSNTYPE
380
     0
  9
$PSTYLEMODE
290
     1
  9
$FINGERPRINTGUID
  2
{b76964c0-4e2a-4f12-8a1a-763a9b44c0c5}
  9
$VERSIONGUID
  2
{FAEB1C32-E019-11D5-929B-00C0DF256EC4}
  9
$EXTNAMES
290
     1
  9
$PSVPSCALE
 40
0.0
  9
$OLESTARTUP
290
     0
  0
ENDSEC
  0
SECTION
  2
CLASSES
  0
CLASS
  1
ACDBDICTIONARYWDFLT
  2
AcDbDictionaryWithDefault
  3
ObjectDBX Classes
 90
        0
280
     0
281
     0
  0
CLASS
  1
VISUALSTYLE
  2
AcDbVisualStyle
  3
ObjectDBX Classes
 90
     4095
280
     0
281
     0
  0
CLASS
  1
MATERIAL
  2
AcDbMaterial
  3
ObjectDBX Classes
 90
     1153
280
     0
281
     0
  0
CLASS
  1
SCALE
  2
AcDbScale
  3
ObjectDBX Classes
 90
     1153
280
     0
281
     0
  0
CLASS
  1
TABLESTYLE
  2
AcDbTableStyle
  3
ObjectDBX Classes
 90
     4095
280
     0
281
     0
  0
CLASS
  1
MLEADERSTYLE
  2
AcDbMLeaderStyle
  3
ACDB_MLEADERSTYLE_CLASS
 90
     4095
280
     0
281
     0
  0
CLASS
  1
SUN
  2
AcDbSun
  3
SCENEOE
 90
     1153
280
     0
281
     0
  0
CLASS
  1
ACDBPLACEHOLDER
  2
AcDbPlaceHolder
  3
ObjectDBX Classes
 90
        0
280
     0
281
     0
  0
CLASS
  1
LAYOUT
  2
AcDbLayout
  3
ObjectDBX Classes
 90
        0
280
     0
281
     0
  0
ENDSEC
  0
SECTION
  2
TABLES
  0
TABLE
  2
VPORT
  5
8
330
0
100
AcDbSymbolTable
 70
     1
  0
VPORT
  5
29
330
8
100
AcDbSymbolTableRecord
100
AcDbViewportTableRecord
  2
*Active
 70
     0
 10
0.0
 20
0.0
 11
1.0
 21
1.0
 12
2100.0
 22
2100.0
 13
0.0
 23
0.0
 14
10.0
 24
10.0
 15
10.0
 25
10.0
 16
0.0
 26
0.0
 36
1.0
 17
0.0
 27
0.0
 37
0.0
 40
4200.0
 41
1.0
 42
50.0
 43
0.0
 44
0.0
 50
0.0
 51
0.0
 71
     0
 72
  2000
 73
     1
 74
     3
 75
     0
 76
     0
 77
     0
 78
     0
281
     0
 65
     1
110
0.0
120
0.0
130
0.0
111
1.0
121
0.0
131
0.0
112
0.0
122
1.0
132
0.0
 79
     0
146
0.0
  0
ENDTAB
  0
TABLE
  2
LTYPE
  5
5
330
0
100
AcDbSymbolTable
 70
     6
  0
LTYPE
  5
14
330
5
100
AcDbSymbolTableRecord
100
AcDbLinetypeTableRecord
  2
ByBlock
 70
     0
  3

 72
    65
 73
     0
 40
0.0
  0
LTYPE
  5
15
330
5
100
AcDbSymbolTableRecord
100
AcDbLinetypeTableRecord
  2
ByLayer
 70
     0
  3

 72
    65
 73
     0
 40
0.0
  0
LTYPE
  5
16
330
5
100
AcDbSymbolTableRecord
100
AcDbLinetypeTableRecord
  2
Continuous
 70
     0
  3
Solid line
 72
    65
 73
     0
 40
0.0
  0
LTYPE
  5
5E
330
5
100
AcDbSymbolTableRecord
100
AcDbLinetypeTableRecord
  2
HIDDEN
 70
     0
  3
Hidden __ __ __ __ __ __ __ __ __ __ __ __ __ __
 72
    65
 73
     2
 40
1.905
 49
1.27
 74
     0
 49
-0.635
 74
     0
  0
LTYPE
  5
5F
330
5
100
AcDbSymbolTableRecord
100
AcDbLinetypeTableRecord
  2
PHANTOM
 70
     0
  3
Phantom ______  __  __  ______  __  __  ______
 72
    65
 73
     6
 40
12.7
 49
6.35
 74
     0
 49
-1.27
 74
     0
 49
1.27
 74
     0
 49
-1.27
 74
     0
 49
1.27
 74
     0
 49
-1.27
 74
     0
  0
LTYPE
  5
60
330
5
100
AcDbSymbolTableRecord
100
AcDbLinetypeTableRecord
  2
CENTER
 70
     0
  3
Center ____ _ ____ _ ____ _ ____ _ ____ _ ____
 72
    65
 73
     4
 40
10.16
 49
6.35
 74
     0
 49
-1.27
 74
     0
 49
1.27
 74
     0
 49
-1.27
 74
     0
  0
LTYPE
  5
61
330
5
100
AcDbSymbolTableRecord
100
AcDbLinetypeTableRecord
  2
CENTERX2
 70
     0
  3
Center (2x) ________  __  ________  __  _____
 72
    65
 73
     4
 40
20.32
 49
12.7
 74
     0
 49
-2.54
 74
     0
 49
2.54
 74
     0
 49
-2.54
 74
     0
  0
LTYPE
  5
62
330
5
100
AcDbSymbolTableRecord
100
AcDbLinetypeTableRecord
  2
DOT2
 70
     0
  3
Dot (.5x) ........................................
 72
    65
 73
     2
 40
0.635
 49
0.0
 74
     0
 49
-0.635
 74
     0
  0
ENDTAB
  0
TABLE
  2
LAYER
  5
2
330
0
100
AcDbSymbolTable
 70
     1
  0
LAYER
  5
10
330
2
100
AcDbSymbolTableRecord
100
AcDbLayerTableRecord
  2
0
 70
     0
 62
     7
  6
Continuous
370
    -3
390
F
  0
ENDTAB
  0
TABLE
  2
STYLE
  5
3
330
0
100
AcDbSymbolTable
 70
     3
  0
STYLE
  5
11
330
3
100
AcDbSymbolTableRecord
100
AcDbTextStyleTableRecord
  2
STANDARD
 70
     0
 40
0.0
 41
1.0
 50
0.0
 71
     0
 42
3.5
  3
GOTHIC.TTF
  4

1001
ACAD
1000
CENTURY GOTHIC
1071
       34
  0
STYLE
  5
1BB
330
3
100
AcDbSymbolTableRecord
100
AcDbTextStyleTableRecord
  2
SLDTEXTSTYLE0
 70
     0
 40
0.0
 41
0.913
 50
0.0
 71
     0
 42
3.5
  3
GOTHICBI.TTF
  4

1001
ACAD
1000
Century Gothic
1071
      290
  0
STYLE
  5
1E5
330
3
100
AcDbSymbolTableRecord
100
AcDbTextStyleTableRecord
  2
SLDTEXTSTYLE1
 70
     0
 40
0.0
 41
0.913
 50
0.0
 71
     0
 42
3.5
  3
GOTHIC.TTF
  4

1001
ACAD
1000
Century Gothic
1071
      290
  0
ENDTAB
  0
TABLE
  2
VIEW
  5
6
330
0
100
AcDbSymbolTable
 70
     0
  0
ENDTAB
  0
TABLE
  2
UCS
  5
7
330
0
100
AcDbSymbolTable
 70
     0
  0
ENDTAB
  0
TABLE
  2
APPID
  5
9
330
0
100
AcDbSymbolTable
 70
     1
  0
APPID
  5
12
330
9
100
AcDbSymbolTableRecord
100
AcDbRegAppTableRecord
  2
ACAD
 70
     0
  0
ENDTAB
  0
TABLE
  2
DIMSTYLE
  5
A
330
0
100
AcDbSymbolTable
 70
     1
100
AcDbDimStyleTable
  0
DIMSTYLE
105
27
330
A
100
AcDbSymbolTableRecord
100
AcDbDimStyleTableRecord
  2
ISO-25
 70
     0
 41
2.5
 42
0.625
 43
3.75
 44
1.25
 73
     0
 74
     0
 77
     1
 78
     8
140
2.5
141
2.5
143
0.0393700787
147
0.625
171
     3
172
     1
178
     0
271
     2
272
     2
274
     3
278
    44
283
     0
284
     8
340
11
  0
ENDTAB
  0
TABLE
  2
BLOCK_RECORD
  5
1
330
0
100
AcDbSymbolTable
 70
     1
  0
BLOCK_RECORD
  5
1F
330
1
100
AcDbSymbolTableRecord
100
AcDbBlockTableRecord
  2
*Model_Space
340
22
  0
BLOCK_RECORD
  5
1B
330
1
100
AcDbSymbolTableRecord
100
AcDbBlockTableRecord
  2
*Paper_Space
340
1E
  0
BLOCK_RECORD
  5
23
330
1
100
AcDbSymbolTableRecord
100
AcDbBlockTableRecord
  2
*Paper_Space0
340
26
  0
ENDTAB
  0
ENDSEC
  0
SECTION
  2
BLOCKS
  0
BLOCK
  5
20
330
1F
100
AcDbEntity
  8
0
100
AcDbBlockBegin
  2
*Model_Space
 70
     0
 10
0.0
 20
0.0
 30
0.0
  3
*Model_Space
  1

  0
ENDBLK
  5
21
330
1F
100
AcDbEntity
  8
0
100
AcDbBlockEnd
  0
BLOCK
  5
1C
330
1B
100
AcDbEntity
 67
     1
  8
0
100
AcDbBlockBegin
  2
*Paper_Space
 70
     0
 10
0.0
 20
0.0
 30
0.0
  3
*Paper_Space
  1

  0
ENDBLK
  5
1D
330
1B
100
AcDbEntity
 67
     1
  8
0
100
AcDbBlockEnd
  0
BLOCK
  5
24
330
23
100
AcDbEntity
  8
0
100
AcDbBlockBegin
  2
*Paper_Space0
 70
     0
 10
0.0
 20
0.0
 30
0.0
  3
*Paper_Space0
  1

  0
ENDBLK
  5
25
330
23
100
AcDbEntity
  8
0
100
AcDbBlockEnd
  0
ENDSEC
  0
SECTION
  2
ENTITIES
  0
LINE
  5
63
330
1F
100
AcDbEntity
  8
0
  6
Continuous
 62
     7
370
    70
100
AcDbLine
 10
10.0
 20
10.0
 30
0.0
 11
10.0
 21
4190.0
 31
0.0
  0
LINE
  5
64
330
1F
100
AcDbEntity
  8
0
  6
Continuous
 62
     7
370
    70
100
AcDbLine
 10
10.0
 20
4190.0
 30
0.0
 11
4190.0
 21
4190.0
 31
0.0
  0
LINE
  5
65
330
1F
100
AcDbEntity
  8
0
  6
Continuous
 62
     7
370
    70
100
AcDbLine
 10
4190.0
 20
4190.0
 30
0.0
 11
4190.0
 21
10.0
 31
0.0
  0
LINE
  5
66
330
1F
100
AcDbEntity
  8
0
  6
Continuous
 62
     7
370
    70
100
AcDbLine
 10
4190.0
 20
10.0
 30
0.0
 11
10.0
 21
10.0
 31
0.0
  0
LINE
  5
67
330
1F
100
AcDbEntity
  8
0
  6
Continuous
 62
     7
370
    70
100
AcDbLine
 10
5.0
 20
5.0
 30
0.0
 11
5.0
 21
4195.0
 31
0.0
  0
LINE
  5
68
330
1F
100
AcDbEntity
  8
0
  6
Continuous
 62
     7
370
    70
100
AcDbLine
 10
5.0
 20
4195.0
 30
0.0
 11
4195.0
 21
4195.0
 31
0.0
  0
LINE
  5
69
330
1F
100
AcDbEntity
  8
0
  6
Continuous
 62
     7
370
    70
100
AcDbLine
 10
4195.0
 20
4195.0
 30
0.0
 11
4195.0
 21
5.0
 31
0.0
  0
LINE
  5
6A
330
1F
100
AcDbEntity
  8
0
  6
Continuous
 62
     7
370
    70
100
AcDbLine
 10
4195.0
 20
5.0
 30
0.0
 11
5.0
 21
5.0
 31
0.0
  0
LINE
  5
6B
330
1F
100
AcDbEntity
  8
0
  6
Continuous
 62
     7
370
    35
100
AcDbLine
 10
4.999
 20
2100.0
 30
0.0
 11
15.001
 21
2100.0
 31
0.0
  0
LINE
  5
6C
330
1F
100
AcDbEntity
  8
0
  6
Continuous
 62
     7
370
    35
100
AcDbLine
 10
2100.0
 20
4195.001
 30
0.0
 11
2100.0
 21
4184.999
 31
0.0
  0
LINE
  5
6D
330
1F
100
AcDbEntity
  8
0
  6
Continuous
 62
     7
370
    35
100
AcDbLine
 10
4195.001
 20
2100.0
 30
0.0
 11
4184.999
 21
2100.0
 31
0.0
  0
LINE
  5
6E
330
1F
100
AcDbEntity
  8
0
  6
Continuous
 62
     7
370
    35
100
AcDbLine
 10
2100.0
 20
4.999
 30
0.0
 11
2100.0
 21
15.001
 31
0.0
  0
LINE
  5
6F
330
1F
100
AcDbEntity
  8
0
  6
Continuous
 62
     7
370
    35
100
AcDbLine
 10
10.0
 20
50.0
 30
0.0
 11
5.0
 21
50.0
 31
0.0
  0
LINE
  5
70
330
1F
100
AcDbEntity
  8
0
  6
Continuous
 62
     7
370
    35
100
AcDbLine
 10
4190.0
 20
50.0
 30
0.0
 11
4195.0
 21
50.0
 31
0.0
  0
LINE
  5
71
330
1F
100
AcDbEntity
  8
0
  6
Continuous
 62
     7
370
    35
100
AcDbLine
 10
10.0
 20
100.0
 30
0.0
 11
5.0
 21
100.0
 31
0.0
  0
LINE
  5
72
330
1F
100
AcDbEntity
  8
0
  6
Continuous
 62
     7
370
    35
100
AcDbLine
 10
4190.0
 20
100.0
 30
0.0
 11
4195.0
 21
100.0
 31
0.0
  0
LINE
  5
73
330
1F
100
AcDbEntity
  8
0
  6
Continuous
 62
     7
370
    35
100
AcDbLine
 10
10.0
 20
150.0
 30
0.0
 11
5.0
 21
150.0
 31
0.0
  0
LINE
  5
74
330
1F
100
AcDbEntity
  8
0
  6
Continuous
 62
     7
370
    35
100
AcDbLine
 10
4190.0
 20
150.0
 30
0.0
 11
4195.0
 21
150.0
 31
0.0
  0
LINE
  5
75
330
1F
100
AcDbEntity
  8
0
  6
Continuous
 62
     7
370
    35
100
AcDbLine
 10
10.0
 20
200.0
 30
0.0
 11
5.0
 21
200.0
 31
0.0
  0
LINE
  5
76
330
1F
100
AcDbEntity
  8
0
  6
Continuous
 62
     7
370
    35
100
AcDbLine
 10
4190.0
 20
200.0
 30
0.0
 11
4195.0
 21
200.0
 31
0.0
  0
LINE
  5
77
330
1F
100
AcDbEntity
  8
0
  6
Continuous
 62
     7
370
    35
100
AcDbLine
 10
10.0
 20
250.0
 30
0.0
 11
5.0
 21
250.0
 31
0.0
  0
LINE
  5
78
330
1F
100
AcDbEntity
  8
0
  6
Continuous
 62
     7
370
    35
100
AcDbLine
 10
4190.0
 20
250.0
 30
0.0
 11
4195.0
 21
250.0
 31
0.0
  0
LINE
  5
79
330
1F
100
AcDbEntity
  8
0
  6
Continuous
 62
     7
370
    35
100
AcDbLine
 10
10.0
 20
300.0
 30
0.0
 11
5.0
 21
300.0
 31
0.0
  0
LINE
  5
7A
330
1F
100
AcDbEntity
  8
0
  6
Continuous
 62
     7
370
    35
100
AcDbLine
 10
4190.0
 20
300.0
 30
0.0
 11
4195.0
 21
300.0
 31
0.0
  0
LINE
  5
7B
330
1F
100
AcDbEntity
  8
0
  6
Continuous
 62
     7
370
    35
100
AcDbLine
 10
10.0
 20
350.0
 30
0.0
 11
5.0
 21
350.0
 31
0.0
  0
LINE
  5
7C
330
1F
100
AcDbEntity
  8
0
  6
Continuous
 62
     7
370
    35
100
AcDbLine
 10
4190.0
 20
350.0
 30
0.0
 11
4195.0
 21
350.0
 31
0.0
  0
LINE
  5
7D
330
1F
100
AcDbEntity
  8
0
  6
Continuous
 62
     7
370
    35
100
AcDbLine
 10
10.0
 20
400.0
 30
0.0
 11
5.0
 21
400.0
 31
0.0
  0
LINE
  5
7E
330
1F
100
AcDbEntity
  8
0
  6
Continuous
 62
     7
370
    35
100
AcDbLine
 10
4190.0
 20
400.0
 30
0.0
 11
4195.0
 21
400.0
 31
0.0
  0
LINE
  5
7F
330
1F
100
AcDbEntity
  8
0
  6
Continuous
 62
     7
370
    35
100
AcDbLine
 10
10.0
 20
450.0
 30
0.0
 11
5.0
 21
450.0
 31
0.0
  0
LINE
  5
80
330
1F
100
AcDbEntity
  8
0
  6
Continuous
 62
     7
370
    35
100
AcDbLine
 10
4190.0
 20
450.0
 30
0.0
 11
4195.0
 21
450.0
 31
0.0
  0
LINE
  5
81
330
1F
100
AcDbEntity
  8
0
  6
Continuous
 62
     7
370
    35
100
AcDbLine
 10
10.0
 20
500.0
 30
0.0
 11
5.0
 21
500.0
 31
0.0
  0
LINE
  5
82
330
1F
100
AcDbEntity
  8
0
  6
Continuous
 62
     7
370
    35
100
AcDbLine
 10
4190.0
 20
500.0
 30
0.0
 11
4195.0
 21
500.0
 31
0.0
  0
LINE
  5
83
330
1F
100
AcDbEntity
  8
0
  6
Continuous
 62
     7
370
    35
100
AcDbLine
 10
10.0
 20
550.0
 30
0.0
 11
5.0
 21
550.0
 31
0.0
  0
LINE
  5
84
330
1F
100
AcDbEntity
  8
0
  6
Continuous
 62
     7
370
    35
100
AcDbLine
 10
4190.0
 20
550.0
 30
0.0
 11
4195.0
 21
550.0
 31
0.0
  0
LINE
  5
85
330
1F
100
AcDbEntity
  8
0
  6
Continuous
 62
     7
370
    35
100
AcDbLine
 10
10.0
 20
600.0
 30
0.0
 11
5.0
 21
600.0
 31
0.0
  0
LINE
  5
86
330
1F
100
AcDbEntity
  8
0
  6
Continuous
 62
     7
370
    35
100
AcDbLine
 10
4190.0
 20
600.0
 30
0.0
 11
4195.0
 21
600.0
 31
0.0
  0
LINE
  5
87
330
1F
100
AcDbEntity
  8
0
  6
Continuous
 62
     7
370
    35
100
AcDbLine
 10
10.0
 20
650.0
 30
0.0
 11
5.0
 21
650.0
 31
0.0
  0
LINE
  5
88
330
1F
100
AcDbEntity
  8
0
  6
Continuous
 62
     7
370
    35
100
AcDbLine
 10
4190.0
 20
650.0
 30
0.0
 11
4195.0
 21
650.0
 31
0.0
  0
LINE
  5
89
330
1F
100
AcDbEntity
  8
0
  6
Continuous
 62
     7
370
    35
100
AcDbLine
 10
10.0
 20
700.0
 30
0.0
 11
5.0
 21
700.0
 31
0.0
  0
LINE
  5
8A
330
1F
100
AcDbEntity
  8
0
  6
Continuous
 62
     7
370
    35
100
AcDbLine
 10
4190.0
 20
700.0
 30
0.0
 11
4195.0
 21
700.0
 31
0.0
  0
LINE
  5
8B
330
1F
100
AcDbEntity
  8
0
  6
Continuous
 62
     7
370
    35
100
AcDbLine
 10
10.0
 20
750.0
 30
0.0
 11
5.0
 21
750.0
 31
0.0
  0
LINE
  5
8C
330
1F
100
AcDbEntity
  8
0
  6
Continuous
 62
     7
370
    35
100
AcDbLine
 10
4190.0
 20
750.0
 30
0.0
 11
4195.0
 21
750.0
 31
0.0
  0
LINE
  5
8D
330
1F
100
AcDbEntity
  8
0
  6
Continuous
 62
     7
370
    35
100
AcDbLine
 10
10.0
 20
800.0
 30
0.0
 11
5.0
 21
800.0
 31
0.0
  0
LINE
  5
8E
330
1F
100
AcDbEntity
  8
0
  6
Continuous
 62
     7
370
    35
100
AcDbLine
 10
4190.0
 20
800.0
 30
0.0
 11
4195.0
 21
800.0
 31
0.0
  0
LINE
  5
8F
330
1F
100
AcDbEntity
  8
0
  6
Continuous
 62
     7
370
    35
100
AcDbLine
 10
10.0
 20
850.0
 30
0.0
 11
5.0
 21
850.0
 31
0.0
  0
LINE
  5
90
330
1F
100
AcDbEntity
  8
0
  6
Continuous
 62
     7
370
    35
100
AcDbLine
 10
4190.0
 20
850.0
 30
0.0
 11
4195.0
 21
850.0
 31
0.0
  0
LINE
  5
91
330
1F
100
AcDbEntity
  8
0
  6
Continuous
 62
     7
370
    35
100
AcDbLine
 10
10.0
 20
900.0
 30
0.0
 11
5.0
 21
900.0
 31
0.0
  0
LINE
  5
92
330
1F
100
AcDbEntity
  8
0
  6
Continuous
 62
     7
370
    35
100
AcDbLine
 10
4190.0
 20
900.0
 30
0.0
 11
4195.0
 21
900.0
 31
0.0
  0
LINE
  5
93
330
1F
100
AcDbEntity
  8
0
  6
Continuous
 62
     7
370
    35
100
AcDbLine
 10
10.0
 20
950.0
 30
0.0
 11
5.0
 21
950.0
 31
0.0
  0
LINE
  5
94
330
1F
100
AcDbEntity
  8
0
  6
Continuous
 62
     7
370
    35
100
AcDbLine
 10
4190.0
 20
950.0
 30
0.0
 11
4195.0
 21
950.0
 31
0.0
  0
LINE
  5
95
330
1F
100
AcDbEntity
  8
0
  6
Continuous
 62
     7
370
    35
100
AcDbLine
 10
10.0
 20
1000.0
 30
0.0
 11
5.0
 21
1000.0
 31
0.0
  0
LINE
  5
96
330
1F
100
AcDbEntity
  8
0
  6
Continuous
 62
     7
370
    35
100
AcDbLine
 10
4190.0
 20
1000.0
 30
0.0
 11
4195.0
 21
1000.0
 31
0.0
  0
LINE
  5
97
330
1F
100
AcDbEntity
  8
0
  6
Continuous
 62
     7
370
    35
100
AcDbLine
 10
10.0
 20
1050.0
 30
0.0
 11
5.0
 21
1050.0
 31
0.0
  0
LINE
  5
98
330
1F
100
AcDbEntity
  8
0
  6
Continuous
 62
     7
370
    35
100
AcDbLine
 10
4190.0
 20
1050.0
 30
0.0
 11
4195.0
 21
1050.0
 31
0.0
  0
LINE
  5
99
330
1F
100
AcDbEntity
  8
0
  6
Continuous
 62
     7
370
    35
100
AcDbLine
 10
10.0
 20
1100.0
 30
0.0
 11
5.0
 21
1100.0
 31
0.0
  0
LINE
  5
9A
330
1F
100
AcDbEntity
  8
0
  6
Continuous
 62
     7
370
    35
100
AcDbLine
 10
4190.0
 20
1100.0
 30
0.0
 11
4195.0
 21
1100.0
 31
0.0
  0
LINE
  5
9B
330
1F
100
AcDbEntity
  8
0
  6
Continuous
 62
     7
370
    35
100
AcDbLine
 10
10.0
 20
1150.0
 30
0.0
 11
5.0
 21
1150.0
 31
0.0
  0
LINE
  5
9C
330
1F
100
AcDbEntity
  8
0
  6
Continuous
 62
     7
370
    35
100
AcDbLine
 10
4190.0
 20
1150.0
 30
0.0
 11
4195.0
 21
1150.0
 31
0.0
  0
LINE
  5
9D
330
1F
100
AcDbEntity
  8
0
  6
Continuous
 62
     7
370
    35
100
AcDbLine
 10
10.0
 20
1200.0
 30
0.0
 11
5.0
 21
1200.0
 31
0.0
  0
LINE
  5
9E
330
1F
100
AcDbEntity
  8
0
  6
Continuous
 62
     7
370
    35
100
AcDbLine
 10
4190.0
 20
1200.0
 30
0.0
 11
4195.0
 21
1200.0
 31
0.0
  0
LINE
  5
9F
330
1F
100
AcDbEntity
  8
0
  6
Continuous
 62
     7
370
    35
100
AcDbLine
 10
10.0
 20
1250.0
 30
0.0
 11
5.0
 21
1250.0
 31
0.0
  0
LINE
  5
A0
330
1F
100
AcDbEntity
  8
0
  6
Continuous
 62
     7
370
    35
100
AcDbLine
 10
4190.0
 20
1250.0
 30
0.0
 11
4195.0
 21
1250.0
 31
0.0
  0
LINE
  5
A1
330
1F
100
AcDbEntity
  8
0
  6
Continuous
 62
     7
370
    35
100
AcDbLine
 10
10.0
 20
1300.0
 30
0.0
 11
5.0
 21
1300.0
 31
0.0
  0
LINE
  5
A2
330
1F
100
AcDbEntity
  8
0
  6
Continuous
 62
     7
370
    35
100
AcDbLine
 10
4190.0
 20
1300.0
 30
0.0
 11
4195.0
 21
1300.0
 31
0.0
  0
LINE
  5
A3
330
1F
100
AcDbEntity
  8
0
  6
Continuous
 62
     7
370
    35
100
AcDbLine
 10
10.0
 20
1350.0
 30
0.0
 11
5.0
 21
1350.0
 31
0.0
  0
LINE
  5
A4
330
1F
100
AcDbEntity
  8
0
  6
Continuous
 62
     7
370
    35
100
AcDbLine
 10
4190.0
 20
1350.0
 30
0.0
 11
4195.0
 21
1350.0
 31
0.0
  0
LINE
  5
A5
330
1F
100
AcDbEntity
  8
0
  6
Continuous
 62
     7
370
    35
100
AcDbLine
 10
10.0
 20
1400.0
 30
0.0
 11
5.0
 21
1400.0
 31
0.0
  0
LINE
  5
A6
330
1F
100
AcDbEntity
  8
0
  6
Continuous
 62
     7
370
    35
100
AcDbLine
 10
4190.0
 20
1400.0
 30
0.0
 11
4195.0
 21
1400.0
 31
0.0
  0
LINE
  5
A7
330
1F
100
AcDbEntity
  8
0
  6
Continuous
 62
     7
370
    35
100
AcDbLine
 10
10.0
 20
1450.0
 30
0.0
 11
5.0
 21
1450.0
 31
0.0
  0
LINE
  5
A8
330
1F
100
AcDbEntity
  8
0
  6
Continuous
 62
     7
370
    35
100
AcDbLine
 10
4190.0
 20
1450.0
 30
0.0
 11
4195.0
 21
1450.0
 31
0.0
  0
LINE
  5
A9
330
1F
100
AcDbEntity
  8
0
  6
Continuous
 62
     7
370
    35
100
AcDbLine
 10
10.0
 20
1500.0
 30
0.0
 11
5.0
 21
1500.0
 31
0.0
  0
LINE
  5
AA
330
1F
100
AcDbEntity
  8
0
  6
Continuous
 62
     7
370
    35
100
AcDbLine
 10
4190.0
 20
1500.0
 30
0.0
 11
4195.0
 21
1500.0
 31
0.0
  0
LINE
  5
AB
330
1F
100
AcDbEntity
  8
0
  6
Continuous
 62
     7
370
    35
100
AcDbLine
 10
10.0
 20
1550.0
 30
0.0
 11
5.0
 21
1550.0
 31
0.0
  0
LINE
  5
AC
330
1F
100
AcDbEntity
  8
0
  6
Continuous
 62
     7
370
    35
100
AcDbLine
 10
4190.0
 20
1550.0
 30
0.0
 11
4195.0
 21
1550.0
 31
0.0
  0
LINE
  5
AD
330
1F
100
AcDbEntity
  8
0
  6
Continuous
 62
     7
370
    35
100
AcDbLine
 10
10.0
 20
1600.0
 30
0.0
 11
5.0
 21
1600.0
 31
0.0
  0
LINE
  5
AE
330
1F
100
AcDbEntity
  8
0
  6
Continuous
 62
     7
370
    35
100
AcDbLine
 10
4190.0
 20
1600.0
 30
0.0
 11
4195.0
 21
1600.0
 31
0.0
  0
LINE
  5
AF
330
1F
100
AcDbEntity
  8
0
  6
Continuous
 62
     7
370
    35
100
AcDbLine
 10
10.0
 20
1650.0
 30
0.0
 11
5.0
 21
1650.0
 31
0.0
  0
LINE
  5
B0
330
1F
100
AcDbEntity
  8
0
  6
Continuous
 62
     7
370
    35
100
AcDbLine
 10
4190.0
 20
1650.0
 30
0.0
 11
4195.0
 21
1650.0
 31
0.0
  0
LINE
  5
B1
330
1F
100
AcDbEntity
  8
0
  6
Continuous
 62
     7
370
    35
100
AcDbLine
 10
10.0
 20
1700.0
 30
0.0
 11
5.0
 21
1700.0
 31
0.0
  0
LINE
  5
B2
330
1F
100
AcDbEntity
  8
0
  6
Continuous
 62
     7
370
    35
100
AcDbLine
 10
4190.0
 20
1700.0
 30
0.0
 11
4195.0
 21
1700.0
 31
0.0
  0
LINE
  5
B3
330
1F
100
AcDbEntity
  8
0
  6
Continuous
 62
     7
370
    35
100
AcDbLine
 10
10.0
 20
1750.0
 30
0.0
 11
5.0
 21
1750.0
 31
0.0
  0
LINE
  5
B4
330
1F
100
AcDbEntity
  8
0
  6
Continuous
 62
     7
370
    35
100
AcDbLine
 10
4190.0
 20
1750.0
 30
0.0
 11
4195.0
 21
1750.0
 31
0.0
  0
LINE
  5
B5
330
1F
100
AcDbEntity
  8
0
  6
Continuous
 62
     7
370
    35
100
AcDbLine
 10
10.0
 20
1800.0
 30
0.0
 11
5.0
 21
1800.0
 31
0.0
  0
LINE
  5
B6
330
1F
100
AcDbEntity
  8
0
  6
Continuous
 62
     7
370
    35
100
AcDbLine
 10
4190.0
 20
1800.0
 30
0.0
 11
4195.0
 21
1800.0
 31
0.0
  0
LINE
  5
B7
330
1F
100
AcDbEntity
  8
0
  6
Continuous
 62
     7
370
    35
100
AcDbLine
 10
10.0
 20
1850.0
 30
0.0
 11
5.0
 21
1850.0
 31
0.0
  0
LINE
  5
B8
330
1F
100
AcDbEntity
  8
0
  6
Continuous
 62
     7
370
    35
100
AcDbLine
 10
4190.0
 20
1850.0
 30
0.0
 11
4195.0
 21
1850.0
 31
0.0
  0
LINE
  5
B9
330
1F
100
AcDbEntity
  8
0
  6
Continuous
 62
     7
370
    35
100
AcDbLine
 10
10.0
 20
1900.0
 30
0.0
 11
5.0
 21
1900.0
 31
0.0
  0
LINE
  5
BA
330
1F
100
AcDbEntity
  8
0
  6
Continuous
 62
     7
370
    35
100
AcDbLine
 10
4190.0
 20
1900.0
 30
0.0
 11
4195.0
 21
1900.0
 31
0.0
  0
LINE
  5
BB
330
1F
100
AcDbEntity
  8
0
  6
Continuous
 62
     7
370
    35
100
AcDbLine
 10
10.0
 20
1950.0
 30
0.0
 11
5.0
 21
1950.0
 31
0.0
  0
LINE
  5
BC
330
1F
100
AcDbEntity
  8
0
  6
Continuous
 62
     7
370
    35
100
AcDbLine
 10
4190.0
 20
1950.0
 30
0.0
 11
4195.0
 21
1950.0
 31
0.0
  0
LINE
  5
BD
330
1F
100
AcDbEntity
  8
0
  6
Continuous
 62
     7
370
    35
100
AcDbLine
 10
10.0
 20
2000.0
 30
0.0
 11
5.0
 21
2000.0
 31
0.0
  0
LINE
  5
BE
330
1F
100
AcDbEntity
  8
0
  6
Continuous
 62
     7
370
    35
100
AcDbLine
 10
4190.0
 20
2000.0
 30
0.0
 11
4195.0
 21
2000.0
 31
0.0
  0
LINE
  5
BF
330
1F
100
AcDbEntity
  8
0
  6
Continuous
 62
     7
370
    35
100
AcDbLine
 10
10.0
 20
2050.0
 30
0.0
 11
5.0
 21
2050.0
 31
0.0
  0
LINE
  5
C0
330
1F
100
AcDbEntity
  8
0
  6
Continuous
 62
     7
370
    35
100
AcDbLine
 10
4190.0
 20
2050.0
 30
0.0
 11
4195.0
 21
2050.0
 31
0.0
  0
LINE
  5
C1
330
1F
100
AcDbEntity
  8
0
  6
Continuous
 62
     7
370
    35
100
AcDbLine
 10
10.0
 20
2100.0
 30
0.0
 11
5.0
 21
2100.0
 31
0.0
  0
LINE
  5
C2
330
1F
100
AcDbEntity
  8
0
  6
Continuous
 62
     7
370
    35
100
AcDbLine
 10
4190.0
 20
2100.0
 30
0.0
 11
4195.0
 21
2100.0
 31
0.0
  0
LINE
  5
C3
330
1F
100
AcDbEntity
  8
0
  6
Continuous
 62
     7
370
    35
100
AcDbLine
 10
10.0
 20
2150.0
 30
0.0
 11
5.0
 21
2150.0
 31
0.0
  0
LINE
  5
C4
330
1F
100
AcDbEntity
  8
0
  6
Continuous
 62
     7
370
    35
100
AcDbLine
 10
4190.0
 20
2150.0
 30
0.0
 11
4195.0
 21
2150.0
 31
0.0
  0
LINE
  5
C5
330
1F
100
AcDbEntity
  8
0
  6
Continuous
 62
     7
370
    35
100
AcDbLine
 10
10.0
 20
2200.0
 30
0.0
 11
5.0
 21
2200.0
 31
0.0
  0
LINE
  5
C6
330
1F
100
AcDbEntity
  8
0
  6
Continuous
 62
     7
370
    35
100
AcDbLine
 10
4190.0
 20
2200.0
 30
0.0
 11
4195.0
 21
2200.0
 31
0.0
  0
LINE
  5
C7
330
1F
100
AcDbEntity
  8
0
  6
Continuous
 62
     7
370
    35
100
AcDbLine
 10
10.0
 20
2250.0
 30
0.0
 11
5.0
 21
2250.0
 31
0.0
  0
LINE
  5
C8
330
1F
100
AcDbEntity
  8
0
  6
Continuous
 62
     7
370
    35
100
AcDbLine
 10
4190.0
 20
2250.0
 30
0.0
 11
4195.0
 21
2250.0
 31
0.0
  0
LINE
  5
C9
330
1F
100
AcDbEntity
  8
0
  6
Continuous
 62
     7
370
    35
100
AcDbLine
 10
10.0
 20
2300.0
 30
0.0
 11
5.0
 21
2300.0
 31
0.0
  0
LINE
  5
CA
330
1F
100
AcDbEntity
  8
0
  6
Continuous
 62
     7
370
    35
100
AcDbLine
 10
4190.0
 20
2300.0
 30
0.0
 11
4195.0
 21
2300.0
 31
0.0
  0
LINE
  5
CB
330
1F
100
AcDbEntity
  8
0
  6
Continuous
 62
     7
370
    35
100
AcDbLine
 10
10.0
 20
2350.0
 30
0.0
 11
5.0
 21
2350.0
 31
0.0
  0
LINE
  5
CC
330
1F
100
AcDbEntity
  8
0
  6
Continuous
 62
     7
370
    35
100
AcDbLine
 10
4190.0
 20
2350.0
 30
0.0
 11
4195.0
 21
2350.0
 31
0.0
  0
LINE
  5
CD
330
1F
100
AcDbEntity
  8
0
  6
Continuous
 62
     7
370
    35
100
AcDbLine
 10
10.0
 20
2400.0
 30
0.0
 11
5.0
 21
2400.0
 31
0.0
  0
LINE
  5
CE
330
1F
100
AcDbEntity
  8
0
  6
Continuous
 62
     7
370
    35
100
AcDbLine
 10
4190.0
 20
2400.0
 30
0.0
 11
4195.0
 21
2400.0
 31
0.0
  0
LINE
  5
CF
330
1F
100
AcDbEntity
  8
0
  6
Continuous
 62
     7
370
    35
100
AcDbLine
 10
10.0
 20
2450.0
 30
0.0
 11
5.0
 21
2450.0
 31
0.0
  0
LINE
  5
D0
330
1F
100
AcDbEntity
  8
0
  6
Continuous
 62
     7
370
    35
100
AcDbLine
 10
4190.0
 20
2450.0
 30
0.0
 11
4195.0
 21
2450.0
 31
0.0
  0
LINE
  5
D1
330
1F
100
AcDbEntity
  8
0
  6
Continuous
 62
     7
370
    35
100
AcDbLine
 10
10.0
 20
2500.0
 30
0.0
 11
5.0
 21
2500.0
 31
0.0
  0
LINE
  5
D2
330
1F
100
AcDbEntity
  8
0
  6
Continuous
 62
     7
370
    35
100
AcDbLine
 10
4190.0
 20
2500.0
 30
0.0
 11
4195.0
 21
2500.0
 31
0.0
  0
LINE
  5
D3
330
1F
100
AcDbEntity
  8
0
  6
Continuous
 62
     7
370
    35
100
AcDbLine
 10
10.0
 20
2550.0
 30
0.0
 11
5.0
 21
2550.0
 31
0.0
  0
LINE
  5
D4
330
1F
100
AcDbEntity
  8
0
  6
Continuous
 62
     7
370
    35
100
AcDbLine
 10
4190.0
 20
2550.0
 30
0.0
 11
4195.0
 21
2550.0
 31
0.0
  0
LINE
  5
D5
330
1F
100
AcDbEntity
  8
0
  6
Continuous
 62
     7
370
    35
100
AcDbLine
 10
10.0
 20
2600.0
 30
0.0
 11
5.0
 21
2600.0
 31
0.0
  0
LINE
  5
D6
330
1F
100
AcDbEntity
  8
0
  6
Continuous
 62
     7
370
    35
100
AcDbLine
 10
4190.0
 20
2600.0
 30
0.0
 11
4195.0
 21
2600.0
 31
0.0
  0
LINE
  5
D7
330
1F
100
AcDbEntity
  8
0
  6
Continuous
 62
     7
370
    35
100
AcDbLine
 10
10.0
 20
2650.0
 30
0.0
 11
5.0
 21
2650.0
 31
0.0
  0
LINE
  5
D8
330
1F
100
AcDbEntity
  8
0
  6
Continuous
 62
     7
370
    35
100
AcDbLine
 10
4190.0
 20
2650.0
 30
0.0
 11
4195.0
 21
2650.0
 31
0.0
  0
LINE
  5
D9
330
1F
100
AcDbEntity
  8
0
  6
Continuous
 62
     7
370
    35
100
AcDbLine
 10
10.0
 20
2700.0
 30
0.0
 11
5.0
 21
2700.0
 31
0.0
  0
LINE
  5
DA
330
1F
100
AcDbEntity
  8
0
  6
Continuous
 62
     7
370
    35
100
AcDbLine
 10
4190.0
 20
2700.0
 30
0.0
 11
4195.0
 21
2700.0
 31
0.0
  0
LINE
  5
DB
330
1F
100
AcDbEntity
  8
0
  6
Continuous
 62
     7
370
    35
100
AcDbLine
 10
10.0
 20
2750.0
 30
0.0
 11
5.0
 21
2750.0
 31
0.0
  0
LINE
  5
DC
330
1F
100
AcDbEntity
  8
0
  6
Continuous
 62
     7
370
    35
100
AcDbLine
 10
4190.0
 20
2750.0
 30
0.0
 11
4195.0
 21
2750.0
 31
0.0
  0
LINE
  5
DD
330
1F
100
AcDbEntity
  8
0
  6
Continuous
 62
     7
370
    35
100
AcDbLine
 10
10.0
 20
2800.0
 30
0.0
 11
5.0
 21
2800.0
 31
0.0
  0
LINE
  5
DE
330
1F
100
AcDbEntity
  8
0
  6
Continuous
 62
     7
370
    35
100
AcDbLine
 10
4190.0
 20
2800.0
 30
0.0
 11
4195.0
 21
2800.0
 31
0.0
  0
LINE
  5
DF
330
1F
100
AcDbEntity
  8
0
  6
Continuous
 62
     7
370
    35
100
AcDbLine
 10
10.0
 20
2850.0
 30
0.0
 11
5.0
 21
2850.0
 31
0.0
  0
LINE
  5
E0
330
1F
100
AcDbEntity
  8
0
  6
Continuous
 62
     7
370
    35
100
AcDbLine
 10
4190.0
 20
2850.0
 30
0.0
 11
4195.0
 21
2850.0
 31
0.0
  0
LINE
  5
E1
330
1F
100
AcDbEntity
  8
0
  6
Continuous
 62
     7
370
    35
100
AcDbLine
 10
10.0
 20
2900.0
 30
0.0
 11
5.0
 21
2900.0
 31
0.0
  0
LINE
  5
E2
330
1F
100
AcDbEntity
  8
0
  6
Continuous
 62
     7
370
    35
100
AcDbLine
 10
4190.0
 20
2900.0
 30
0.0
 11
4195.0
 21
2900.0
 31
0.0
  0
LINE
  5
E3
330
1F
100
AcDbEntity
  8
0
  6
Continuous
 62
     7
370
    35
100
AcDbLine
 10
10.0
 20
2950.0
 30
0.0
 11
5.0
 21
2950.0
 31
0.0
  0
LINE
  5
E4
330
1F
100
AcDbEntity
  8
0
  6
Continuous
 62
     7
370
    35
100
AcDbLine
 10
4190.0
 20
2950.0
 30
0.0
 11
4195.0
 21
2950.0
 31
0.0
  0
LINE
  5
E5
330
1F
100
AcDbEntity
  8
0
  6
Continuous
 62
     7
370
    35
100
AcDbLine
 10
10.0
 20
3000.0
 30
0.0
 11
5.0
 21
3000.0
 31
0.0
  0
LINE
  5
E6
330
1F
100
AcDbEntity
  8
0
  6
Continuous
 62
     7
370
    35
100
AcDbLine
 10
4190.0
 20
3000.0
 30
0.0
 11
4195.0
 21
3000.0
 31
0.0
  0
LINE
  5
E7
330
1F
100
AcDbEntity
  8
0
  6
Continuous
 62
     7
370
    35
100
AcDbLine
 10
10.0
 20
3050.0
 30
0.0
 11
5.0
 21
3050.0
 31
0.0
  0
LINE
  5
E8
330
1F
100
AcDbEntity
  8
0
  6
Continuous
 62
     7
370
    35
100
AcDbLine
 10
4190.0
 20
3050.0
 30
0.0
 11
4195.0
 21
3050.0
 31
0.0
  0
LINE
  5
E9
330
1F
100
AcDbEntity
  8
0
  6
Continuous
 62
     7
370
    35
100
AcDbLine
 10
10.0
 20
3100.0
 30
0.0
 11
5.0
 21
3100.0
 31
0.0
  0
LINE
  5
EA
330
1F
100
AcDbEntity
  8
0
  6
Continuous
 62
     7
370
    35
100
AcDbLine
 10
4190.0
 20
3100.0
 30
0.0
 11
4195.0
 21
3100.0
 31
0.0
  0
LINE
  5
EB
330
1F
100
AcDbEntity
  8
0
  6
Continuous
 62
     7
370
    35
100
AcDbLine
 10
10.0
 20
3150.0
 30
0.0
 11
5.0
 21
3150.0
 31
0.0
  0
LINE
  5
EC
330
1F
100
AcDbEntity
  8
0
  6
Continuous
 62
     7
370
    35
100
AcDbLine
 10
4190.0
 20
3150.0
 30
0.0
 11
4195.0
 21
3150.0
 31
0.0
  0
LINE
  5
ED
330
1F
100
AcDbEntity
  8
0
  6
Continuous
 62
     7
370
    35
100
AcDbLine
 10
10.0
 20
3200.0
 30
0.0
 11
5.0
 21
3200.0
 31
0.0
  0
LINE
  5
EE
330
1F
100
AcDbEntity
  8
0
  6
Continuous
 62
     7
370
    35
100
AcDbLine
 10
4190.0
 20
3200.0
 30
0.0
 11
4195.0
 21
3200.0
 31
0.0
  0
LINE
  5
EF
330
1F
100
AcDbEntity
  8
0
  6
Continuous
 62
     7
370
    35
100
AcDbLine
 10
10.0
 20
3250.0
 30
0.0
 11
5.0
 21
3250.0
 31
0.0
  0
LINE
  5
F0
330
1F
100
AcDbEntity
  8
0
  6
Continuous
 62
     7
370
    35
100
AcDbLine
 10
4190.0
 20
3250.0
 30
0.0
 11
4195.0
 21
3250.0
 31
0.0
  0
LINE
  5
F1
330
1F
100
AcDbEntity
  8
0
  6
Continuous
 62
     7
370
    35
100
AcDbLine
 10
10.0
 20
3300.0
 30
0.0
 11
5.0
 21
3300.0
 31
0.0
  0
LINE
  5
F2
330
1F
100
AcDbEntity
  8
0
  6
Continuous
 62
     7
370
    35
100
AcDbLine
 10
4190.0
 20
3300.0
 30
0.0
 11
4195.0
 21
3300.0
 31
0.0
  0
LINE
  5
F3
330
1F
100
AcDbEntity
  8
0
  6
Continuous
 62
     7
370
    35
100
AcDbLine
 10
10.0
 20
3350.0
 30
0.0
 11
5.0
 21
3350.0
 31
0.0
  0
LINE
  5
F4
330
1F
100
AcDbEntity
  8
0
  6
Continuous
 62
     7
370
    35
100
AcDbLine
 10
4190.0
 20
3350.0
 30
0.0
 11
4195.0
 21
3350.0
 31
0.0
  0
LINE
  5
F5
330
1F
100
AcDbEntity
  8
0
  6
Continuous
 62
     7
370
    35
100
AcDbLine
 10
10.0
 20
3400.0
 30
0.0
 11
5.0
 21
3400.0
 31
0.0
  0
LINE
  5
F6
330
1F
100
AcDbEntity
  8
0
  6
Continuous
 62
     7
370
    35
100
AcDbLine
 10
4190.0
 20
3400.0
 30
0.0
 11
4195.0
 21
3400.0
 31
0.0
  0
LINE
  5
F7
330
1F
100
AcDbEntity
  8
0
  6
Continuous
 62
     7
370
    35
100
AcDbLine
 10
10.0
 20
3450.0
 30
0.0
 11
5.0
 21
3450.0
 31
0.0
  0
LINE
  5
F8
330
1F
100
AcDbEntity
  8
0
  6
Continuous
 62
     7
370
    35
100
AcDbLine
 10
4190.0
 20
3450.0
 30
0.0
 11
4195.0
 21
3450.0
 31
0.0
  0
LINE
  5
F9
330
1F
100
AcDbEntity
  8
0
  6
Continuous
 62
     7
370
    35
100
AcDbLine
 10
10.0
 20
3500.0
 30
0.0
 11
5.0
 21
3500.0
 31
0.0
  0
LINE
  5
FA
330
1F
100
AcDbEntity
  8
0
  6
Continuous
 62
     7
370
    35
100
AcDbLine
 10
4190.0
 20
3500.0
 30
0.0
 11
4195.0
 21
3500.0
 31
0.0
  0
LINE
  5
FB
330
1F
100
AcDbEntity
  8
0
  6
Continuous
 62
     7
370
    35
100
AcDbLine
 10
10.0
 20
3550.0
 30
0.0
 11
5.0
 21
3550.0
 31
0.0
  0
LINE
  5
FC
330
1F
100
AcDbEntity
  8
0
  6
Continuous
 62
     7
370
    35
100
AcDbLine
 10
4190.0
 20
3550.0
 30
0.0
 11
4195.0
 21
3550.0
 31
0.0
  0
LINE
  5
FD
330
1F
100
AcDbEntity
  8
0
  6
Continuous
 62
     7
370
    35
100
AcDbLine
 10
10.0
 20
3600.0
 30
0.0
 11
5.0
 21
3600.0
 31
0.0
  0
LINE
  5
FE
330
1F
100
AcDbEntity
  8
0
  6
Continuous
 62
     7
370
    35
100
AcDbLine
 10
4190.0
 20
3600.0
 30
0.0
 11
4195.0
 21
3600.0
 31
0.0
  0
LINE
  5
FF
330
1F
100
AcDbEntity
  8
0
  6
Continuous
 62
     7
370
    35
100
AcDbLine
 10
10.0
 20
3650.0
 30
0.0
 11
5.0
 21
3650.0
 31
0.0
  0
LINE
  5
100
330
1F
100
AcDbEntity
  8
0
  6
Continuous
 62
     7
370
    35
100
AcDbLine
 10
4190.0
 20
3650.0
 30
0.0
 11
4195.0
 21
3650.0
 31
0.0
  0
LINE
  5
101
330
1F
100
AcDbEntity
  8
0
  6
Continuous
 62
     7
370
    35
100
AcDbLine
 10
10.0
 20
3700.0
 30
0.0
 11
5.0
 21
3700.0
 31
0.0
  0
LINE
  5
102
330
1F
100
AcDbEntity
  8
0
  6
Continuous
 62
     7
370
    35
100
AcDbLine
 10
4190.0
 20
3700.0
 30
0.0
 11
4195.0
 21
3700.0
 31
0.0
  0
LINE
  5
103
330
1F
100
AcDbEntity
  8
0
  6
Continuous
 62
     7
370
    35
100
AcDbLine
 10
10.0
 20
3750.0
 30
0.0
 11
5.0
 21
3750.0
 31
0.0
  0
LINE
  5
104
330
1F
100
AcDbEntity
  8
0
  6
Continuous
 62
     7
370
    35
100
AcDbLine
 10
4190.0
 20
3750.0
 30
0.0
 11
4195.0
 21
3750.0
 31
0.0
  0
LINE
  5
105
330
1F
100
AcDbEntity
  8
0
  6
Continuous
 62
     7
370
    35
100
AcDbLine
 10
10.0
 20
3800.0
 30
0.0
 11
5.0
 21
3800.0
 31
0.0
  0
LINE
  5
106
330
1F
100
AcDbEntity
  8
0
  6
Continuous
 62
     7
370
    35
100
AcDbLine
 10
4190.0
 20
3800.0
 30
0.0
 11
4195.0
 21
3800.0
 31
0.0
  0
LINE
  5
107
330
1F
100
AcDbEntity
  8
0
  6
Continuous
 62
     7
370
    35
100
AcDbLine
 10
10.0
 20
3850.0
 30
0.0
 11
5.0
 21
3850.0
 31
0.0
  0
LINE
  5
108
330
1F
100
AcDbEntity
  8
0
  6
Continuous
 62
     7
370
    35
100
AcDbLine
 10
4190.0
 20
3850.0
 30
0.0
 11
4195.0
 21
3850.0
 31
0.0
  0
LINE
  5
109
330
1F
100
AcDbEntity
  8
0
  6
Continuous
 62
     7
370
    35
100
AcDbLine
 10
10.0
 20
3900.0
 30
0.0
 11
5.0
 21
3900.0
 31
0.0
  0
LINE
  5
10A
330
1F
100
AcDbEntity
  8
0
  6
Continuous
 62
     7
370
    35
100
AcDbLine
 10
4190.0
 20
3900.0
 30
0.0
 11
4195.0
 21
3900.0
 31
0.0
  0
LINE
  5
10B
330
1F
100
AcDbEntity
  8
0
  6
Continuous
 62
     7
370
    35
100
AcDbLine
 10
10.0
 20
3950.0
 30
0.0
 11
5.0
 21
3950.0
 31
0.0
  0
LINE
  5
10C
330
1F
100
AcDbEntity
  8
0
  6
Continuous
 62
     7
370
    35
100
AcDbLine
 10
4190.0
 20
3950.0
 30
0.0
 11
4195.0
 21
3950.0
 31
0.0
  0
LINE
  5
10D
330
1F
100
AcDbEntity
  8
0
  6
Continuous
 62
     7
370
    35
100
AcDbLine
 10
10.0
 20
4000.0
 30
0.0
 11
5.0
 21
4000.0
 31
0.0
  0
LINE
  5
10E
330
1F
100
AcDbEntity
  8
0
  6
Continuous
 62
     7
370
    35
100
AcDbLine
 10
4190.0
 20
4000.0
 30
0.0
 11
4195.0
 21
4000.0
 31
0.0
  0
LINE
  5
10F
330
1F
100
AcDbEntity
  8
0
  6
Continuous
 62
     7
370
    35
100
AcDbLine
 10
10.0
 20
4050.0
 30
0.0
 11
5.0
 21
4050.0
 31
0.0
  0
LINE
  5
110
330
1F
100
AcDbEntity
  8
0
  6
Continuous
 62
     7
370
    35
100
AcDbLine
 10
4190.0
 20
4050.0
 30
0.0
 11
4195.0
 21
4050.0
 31
0.0
  0
LINE
  5
111
330
1F
100
AcDbEntity
  8
0
  6
Continuous
 62
     7
370
    35
100
AcDbLine
 10
10.0
 20
4100.0
 30
0.0
 11
5.0
 21
4100.0
 31
0.0
  0
LINE
  5
112
330
1F
100
AcDbEntity
  8
0
  6
Continuous
 62
     7
370
    35
100
AcDbLine
 10
4190.0
 20
4100.0
 30
0.0
 11
4195.0
 21
4100.0
 31
0.0
  0
LINE
  5
113
330
1F
100
AcDbEntity
  8
0
  6
Continuous
 62
     7
370
    35
100
AcDbLine
 10
10.0
 20
4150.0
 30
0.0
 11
5.0
 21
4150.0
 31
0.0
  0
LINE
  5
114
330
1F
100
AcDbEntity
  8
0
  6
Continuous
 62
     7
370
    35
100
AcDbLine
 10
4190.0
 20
4150.0
 30
0.0
 11
4195.0
 21
4150.0
 31
0.0
  0
LINE
  5
115
330
1F
100
AcDbEntity
  8
0
  6
Continuous
 62
     7
370
    35
100
AcDbLine
 10
50.0
 20
4190.0
 30
0.0
 11
50.0
 21
4195.0
 31
0.0
  0
LINE
  5
116
330
1F
100
AcDbEntity
  8
0
  6
Continuous
 62
     7
370
    35
100
AcDbLine
 10
50.0
 20
10.0
 30
0.0
 11
50.0
 21
5.0
 31
0.0
  0
LINE
  5
117
330
1F
100
AcDbEntity
  8
0
  6
Continuous
 62
     7
370
    35
100
AcDbLine
 10
100.0
 20
4190.0
 30
0.0
 11
100.0
 21
4195.0
 31
0.0
  0
LINE
  5
118
330
1F
100
AcDbEntity
  8
0
  6
Continuous
 62
     7
370
    35
100
AcDbLine
 10
100.0
 20
10.0
 30
0.0
 11
100.0
 21
5.0
 31
0.0
  0
LINE
  5
119
330
1F
100
AcDbEntity
  8
0
  6
Continuous
 62
     7
370
    35
100
AcDbLine
 10
150.0
 20
4190.0
 30
0.0
 11
150.0
 21
4195.0
 31
0.0
  0
LINE
  5
11A
330
1F
100
AcDbEntity
  8
0
  6
Continuous
 62
     7
370
    35
100
AcDbLine
 10
150.0
 20
10.0
 30
0.0
 11
150.0
 21
5.0
 31
0.0
  0
LINE
  5
11B
330
1F
100
AcDbEntity
  8
0
  6
Continuous
 62
     7
370
    35
100
AcDbLine
 10
200.0
 20
4190.0
 30
0.0
 11
200.0
 21
4195.0
 31
0.0
  0
LINE
  5
11C
330
1F
100
AcDbEntity
  8
0
  6
Continuous
 62
     7
370
    35
100
AcDbLine
 10
200.0
 20
10.0
 30
0.0
 11
200.0
 21
5.0
 31
0.0
  0
LINE
  5
11D
330
1F
100
AcDbEntity
  8
0
  6
Continuous
 62
     7
370
    35
100
AcDbLine
 10
250.0
 20
4190.0
 30
0.0
 11
250.0
 21
4195.0
 31
0.0
  0
LINE
  5
11E
330
1F
100
AcDbEntity
  8
0
  6
Continuous
 62
     7
370
    35
100
AcDbLine
 10
250.0
 20
10.0
 30
0.0
 11
250.0
 21
5.0
 31
0.0
  0
LINE
  5
11F
330
1F
100
AcDbEntity
  8
0
  6
Continuous
 62
     7
370
    35
100
AcDbLine
 10
300.0
 20
4190.0
 30
0.0
 11
300.0
 21
4195.0
 31
0.0
  0
LINE
  5
120
330
1F
100
AcDbEntity
  8
0
  6
Continuous
 62
     7
370
    35
100
AcDbLine
 10
300.0
 20
10.0
 30
0.0
 11
300.0
 21
5.0
 31
0.0
  0
LINE
  5
121
330
1F
100
AcDbEntity
  8
0
  6
Continuous
 62
     7
370
    35
100
AcDbLine
 10
350.0
 20
4190.0
 30
0.0
 11
350.0
 21
4195.0
 31
0.0
  0
LINE
  5
122
330
1F
100
AcDbEntity
  8
0
  6
Continuous
 62
     7
370
    35
100
AcDbLine
 10
350.0
 20
10.0
 30
0.0
 11
350.0
 21
5.0
 31
0.0
  0
LINE
  5
123
330
1F
100
AcDbEntity
  8
0
  6
Continuous
 62
     7
370
    35
100
AcDbLine
 10
400.0
 20
4190.0
 30
0.0
 11
400.0
 21
4195.0
 31
0.0
  0
LINE
  5
124
330
1F
100
AcDbEntity
  8
0
  6
Continuous
 62
     7
370
    35
100
AcDbLine
 10
400.0
 20
10.0
 30
0.0
 11
400.0
 21
5.0
 31
0.0
  0
LINE
  5
125
330
1F
100
AcDbEntity
  8
0
  6
Continuous
 62
     7
370
    35
100
AcDbLine
 10
450.0
 20
4190.0
 30
0.0
 11
450.0
 21
4195.0
 31
0.0
  0
LINE
  5
126
330
1F
100
AcDbEntity
  8
0
  6
Continuous
 62
     7
370
    35
100
AcDbLine
 10
450.0
 20
10.0
 30
0.0
 11
450.0
 21
5.0
 31
0.0
  0
LINE
  5
127
330
1F
100
AcDbEntity
  8
0
  6
Continuous
 62
     7
370
    35
100
AcDbLine
 10
500.0
 20
4190.0
 30
0.0
 11
500.0
 21
4195.0
 31
0.0
  0
LINE
  5
128
330
1F
100
AcDbEntity
  8
0
  6
Continuous
 62
     7
370
    35
100
AcDbLine
 10
500.0
 20
10.0
 30
0.0
 11
500.0
 21
5.0
 31
0.0
  0
LINE
  5
129
330
1F
100
AcDbEntity
  8
0
  6
Continuous
 62
     7
370
    35
100
AcDbLine
 10
550.0
 20
4190.0
 30
0.0
 11
550.0
 21
4195.0
 31
0.0
  0
LINE
  5
12A
330
1F
100
AcDbEntity
  8
0
  6
Continuous
 62
     7
370
    35
100
AcDbLine
 10
550.0
 20
10.0
 30
0.0
 11
550.0
 21
5.0
 31
0.0
  0
LINE
  5
12B
330
1F
100
AcDbEntity
  8
0
  6
Continuous
 62
     7
370
    35
100
AcDbLine
 10
600.0
 20
4190.0
 30
0.0
 11
600.0
 21
4195.0
 31
0.0
  0
LINE
  5
12C
330
1F
100
AcDbEntity
  8
0
  6
Continuous
 62
     7
370
    35
100
AcDbLine
 10
600.0
 20
10.0
 30
0.0
 11
600.0
 21
5.0
 31
0.0
  0
LINE
  5
12D
330
1F
100
AcDbEntity
  8
0
  6
Continuous
 62
     7
370
    35
100
AcDbLine
 10
650.0
 20
4190.0
 30
0.0
 11
650.0
 21
4195.0
 31
0.0
  0
LINE
  5
12E
330
1F
100
AcDbEntity
  8
0
  6
Continuous
 62
     7
370
    35
100
AcDbLine
 10
650.0
 20
10.0
 30
0.0
 11
650.0
 21
5.0
 31
0.0
  0
LINE
  5
12F
330
1F
100
AcDbEntity
  8
0
  6
Continuous
 62
     7
370
    35
100
AcDbLine
 10
700.0
 20
4190.0
 30
0.0
 11
700.0
 21
4195.0
 31
0.0
  0
LINE
  5
130
330
1F
100
AcDbEntity
  8
0
  6
Continuous
 62
     7
370
    35
100
AcDbLine
 10
700.0
 20
10.0
 30
0.0
 11
700.0
 21
5.0
 31
0.0
  0
LINE
  5
131
330
1F
100
AcDbEntity
  8
0
  6
Continuous
 62
     7
370
    35
100
AcDbLine
 10
750.0
 20
4190.0
 30
0.0
 11
750.0
 21
4195.0
 31
0.0
  0
LINE
  5
132
330
1F
100
AcDbEntity
  8
0
  6
Continuous
 62
     7
370
    35
100
AcDbLine
 10
750.0
 20
10.0
 30
0.0
 11
750.0
 21
5.0
 31
0.0
  0
LINE
  5
133
330
1F
100
AcDbEntity
  8
0
  6
Continuous
 62
     7
370
    35
100
AcDbLine
 10
800.0
 20
4190.0
 30
0.0
 11
800.0
 21
4195.0
 31
0.0
  0
LINE
  5
134
330
1F
100
AcDbEntity
  8
0
  6
Continuous
 62
     7
370
    35
100
AcDbLine
 10
800.0
 20
10.0
 30
0.0
 11
800.0
 21
5.0
 31
0.0
  0
LINE
  5
135
330
1F
100
AcDbEntity
  8
0
  6
Continuous
 62
     7
370
    35
100
AcDbLine
 10
850.0
 20
4190.0
 30
0.0
 11
850.0
 21
4195.0
 31
0.0
  0
LINE
  5
136
330
1F
100
AcDbEntity
  8
0
  6
Continuous
 62
     7
370
    35
100
AcDbLine
 10
850.0
 20
10.0
 30
0.0
 11
850.0
 21
5.0
 31
0.0
  0
LINE
  5
137
330
1F
100
AcDbEntity
  8
0
  6
Continuous
 62
     7
370
    35
100
AcDbLine
 10
900.0
 20
4190.0
 30
0.0
 11
900.0
 21
4195.0
 31
0.0
  0
LINE
  5
138
330
1F
100
AcDbEntity
  8
0
  6
Continuous
 62
     7
370
    35
100
AcDbLine
 10
900.0
 20
10.0
 30
0.0
 11
900.0
 21
5.0
 31
0.0
  0
LINE
  5
139
330
1F
100
AcDbEntity
  8
0
  6
Continuous
 62
     7
370
    35
100
AcDbLine
 10
950.0
 20
4190.0
 30
0.0
 11
950.0
 21
4195.0
 31
0.0
  0
LINE
  5
13A
330
1F
100
AcDbEntity
  8
0
  6
Continuous
 62
     7
370
    35
100
AcDbLine
 10
950.0
 20
10.0
 30
0.0
 11
950.0
 21
5.0
 31
0.0
  0
LINE
  5
13B
330
1F
100
AcDbEntity
  8
0
  6
Continuous
 62
     7
370
    35
100
AcDbLine
 10
1000.0
 20
4190.0
 30
0.0
 11
1000.0
 21
4195.0
 31
0.0
  0
LINE
  5
13C
330
1F
100
AcDbEntity
  8
0
  6
Continuous
 62
     7
370
    35
100
AcDbLine
 10
1000.0
 20
10.0
 30
0.0
 11
1000.0
 21
5.0
 31
0.0
  0
LINE
  5
13D
330
1F
100
AcDbEntity
  8
0
  6
Continuous
 62
     7
370
    35
100
AcDbLine
 10
1050.0
 20
4190.0
 30
0.0
 11
1050.0
 21
4195.0
 31
0.0
  0
LINE
  5
13E
330
1F
100
AcDbEntity
  8
0
  6
Continuous
 62
     7
370
    35
100
AcDbLine
 10
1050.0
 20
10.0
 30
0.0
 11
1050.0
 21
5.0
 31
0.0
  0
LINE
  5
13F
330
1F
100
AcDbEntity
  8
0
  6
Continuous
 62
     7
370
    35
100
AcDbLine
 10
1100.0
 20
4190.0
 30
0.0
 11
1100.0
 21
4195.0
 31
0.0
  0
LINE
  5
140
330
1F
100
AcDbEntity
  8
0
  6
Continuous
 62
     7
370
    35
100
AcDbLine
 10
1100.0
 20
10.0
 30
0.0
 11
1100.0
 21
5.0
 31
0.0
  0
LINE
  5
141
330
1F
100
AcDbEntity
  8
0
  6
Continuous
 62
     7
370
    35
100
AcDbLine
 10
1150.0
 20
4190.0
 30
0.0
 11
1150.0
 21
4195.0
 31
0.0
  0
LINE
  5
142
330
1F
100
AcDbEntity
  8
0
  6
Continuous
 62
     7
370
    35
100
AcDbLine
 10
1150.0
 20
10.0
 30
0.0
 11
1150.0
 21
5.0
 31
0.0
  0
LINE
  5
143
330
1F
100
AcDbEntity
  8
0
  6
Continuous
 62
     7
370
    35
100
AcDbLine
 10
1200.0
 20
4190.0
 30
0.0
 11
1200.0
 21
4195.0
 31
0.0
  0
LINE
  5
144
330
1F
100
AcDbEntity
  8
0
  6
Continuous
 62
     7
370
    35
100
AcDbLine
 10
1200.0
 20
10.0
 30
0.0
 11
1200.0
 21
5.0
 31
0.0
  0
LINE
  5
145
330
1F
100
AcDbEntity
  8
0
  6
Continuous
 62
     7
370
    35
100
AcDbLine
 10
1250.0
 20
4190.0
 30
0.0
 11
1250.0
 21
4195.0
 31
0.0
  0
LINE
  5
146
330
1F
100
AcDbEntity
  8
0
  6
Continuous
 62
     7
370
    35
100
AcDbLine
 10
1250.0
 20
10.0
 30
0.0
 11
1250.0
 21
5.0
 31
0.0
  0
LINE
  5
147
330
1F
100
AcDbEntity
  8
0
  6
Continuous
 62
     7
370
    35
100
AcDbLine
 10
1300.0
 20
4190.0
 30
0.0
 11
1300.0
 21
4195.0
 31
0.0
  0
LINE
  5
148
330
1F
100
AcDbEntity
  8
0
  6
Continuous
 62
     7
370
    35
100
AcDbLine
 10
1300.0
 20
10.0
 30
0.0
 11
1300.0
 21
5.0
 31
0.0
  0
LINE
  5
149
330
1F
100
AcDbEntity
  8
0
  6
Continuous
 62
     7
370
    35
100
AcDbLine
 10
1350.0
 20
4190.0
 30
0.0
 11
1350.0
 21
4195.0
 31
0.0
  0
LINE
  5
14A
330
1F
100
AcDbEntity
  8
0
  6
Continuous
 62
     7
370
    35
100
AcDbLine
 10
1350.0
 20
10.0
 30
0.0
 11
1350.0
 21
5.0
 31
0.0
  0
LINE
  5
14B
330
1F
100
AcDbEntity
  8
0
  6
Continuous
 62
     7
370
    35
100
AcDbLine
 10
1400.0
 20
4190.0
 30
0.0
 11
1400.0
 21
4195.0
 31
0.0
  0
LINE
  5
14C
330
1F
100
AcDbEntity
  8
0
  6
Continuous
 62
     7
370
    35
100
AcDbLine
 10
1400.0
 20
10.0
 30
0.0
 11
1400.0
 21
5.0
 31
0.0
  0
LINE
  5
14D
330
1F
100
AcDbEntity
  8
0
  6
Continuous
 62
     7
370
    35
100
AcDbLine
 10
1450.0
 20
4190.0
 30
0.0
 11
1450.0
 21
4195.0
 31
0.0
  0
LINE
  5
14E
330
1F
100
AcDbEntity
  8
0
  6
Continuous
 62
     7
370
    35
100
AcDbLine
 10
1450.0
 20
10.0
 30
0.0
 11
1450.0
 21
5.0
 31
0.0
  0
LINE
  5
14F
330
1F
100
AcDbEntity
  8
0
  6
Continuous
 62
     7
370
    35
100
AcDbLine
 10
1500.0
 20
4190.0
 30
0.0
 11
1500.0
 21
4195.0
 31
0.0
  0
LINE
  5
150
330
1F
100
AcDbEntity
  8
0
  6
Continuous
 62
     7
370
    35
100
AcDbLine
 10
1500.0
 20
10.0
 30
0.0
 11
1500.0
 21
5.0
 31
0.0
  0
LINE
  5
151
330
1F
100
AcDbEntity
  8
0
  6
Continuous
 62
     7
370
    35
100
AcDbLine
 10
1550.0
 20
4190.0
 30
0.0
 11
1550.0
 21
4195.0
 31
0.0
  0
LINE
  5
152
330
1F
100
AcDbEntity
  8
0
  6
Continuous
 62
     7
370
    35
100
AcDbLine
 10
1550.0
 20
10.0
 30
0.0
 11
1550.0
 21
5.0
 31
0.0
  0
LINE
  5
153
330
1F
100
AcDbEntity
  8
0
  6
Continuous
 62
     7
370
    35
100
AcDbLine
 10
1600.0
 20
4190.0
 30
0.0
 11
1600.0
 21
4195.0
 31
0.0
  0
LINE
  5
154
330
1F
100
AcDbEntity
  8
0
  6
Continuous
 62
     7
370
    35
100
AcDbLine
 10
1600.0
 20
10.0
 30
0.0
 11
1600.0
 21
5.0
 31
0.0
  0
LINE
  5
155
330
1F
100
AcDbEntity
  8
0
  6
Continuous
 62
     7
370
    35
100
AcDbLine
 10
1650.0
 20
4190.0
 30
0.0
 11
1650.0
 21
4195.0
 31
0.0
  0
LINE
  5
156
330
1F
100
AcDbEntity
  8
0
  6
Continuous
 62
     7
370
    35
100
AcDbLine
 10
1650.0
 20
10.0
 30
0.0
 11
1650.0
 21
5.0
 31
0.0
  0
LINE
  5
157
330
1F
100
AcDbEntity
  8
0
  6
Continuous
 62
     7
370
    35
100
AcDbLine
 10
1700.0
 20
4190.0
 30
0.0
 11
1700.0
 21
4195.0
 31
0.0
  0
LINE
  5
158
330
1F
100
AcDbEntity
  8
0
  6
Continuous
 62
     7
370
    35
100
AcDbLine
 10
1700.0
 20
10.0
 30
0.0
 11
1700.0
 21
5.0
 31
0.0
  0
LINE
  5
159
330
1F
100
AcDbEntity
  8
0
  6
Continuous
 62
     7
370
    35
100
AcDbLine
 10
1750.0
 20
4190.0
 30
0.0
 11
1750.0
 21
4195.0
 31
0.0
  0
LINE
  5
15A
330
1F
100
AcDbEntity
  8
0
  6
Continuous
 62
     7
370
    35
100
AcDbLine
 10
1750.0
 20
10.0
 30
0.0
 11
1750.0
 21
5.0
 31
0.0
  0
LINE
  5
15B
330
1F
100
AcDbEntity
  8
0
  6
Continuous
 62
     7
370
    35
100
AcDbLine
 10
1800.0
 20
4190.0
 30
0.0
 11
1800.0
 21
4195.0
 31
0.0
  0
LINE
  5
15C
330
1F
100
AcDbEntity
  8
0
  6
Continuous
 62
     7
370
    35
100
AcDbLine
 10
1800.0
 20
10.0
 30
0.0
 11
1800.0
 21
5.0
 31
0.0
  0
LINE
  5
15D
330
1F
100
AcDbEntity
  8
0
  6
Continuous
 62
     7
370
    35
100
AcDbLine
 10
1850.0
 20
4190.0
 30
0.0
 11
1850.0
 21
4195.0
 31
0.0
  0
LINE
  5
15E
330
1F
100
AcDbEntity
  8
0
  6
Continuous
 62
     7
370
    35
100
AcDbLine
 10
1850.0
 20
10.0
 30
0.0
 11
1850.0
 21
5.0
 31
0.0
  0
LINE
  5
15F
330
1F
100
AcDbEntity
  8
0
  6
Continuous
 62
     7
370
    35
100
AcDbLine
 10
1900.0
 20
4190.0
 30
0.0
 11
1900.0
 21
4195.0
 31
0.0
  0
LINE
  5
160
330
1F
100
AcDbEntity
  8
0
  6
Continuous
 62
     7
370
    35
100
AcDbLine
 10
1900.0
 20
10.0
 30
0.0
 11
1900.0
 21
5.0
 31
0.0
  0
LINE
  5
161
330
1F
100
AcDbEntity
  8
0
  6
Continuous
 62
     7
370
    35
100
AcDbLine
 10
1950.0
 20
4190.0
 30
0.0
 11
1950.0
 21
4195.0
 31
0.0
  0
LINE
  5
162
330
1F
100
AcDbEntity
  8
0
  6
Continuous
 62
     7
370
    35
100
AcDbLine
 10
1950.0
 20
10.0
 30
0.0
 11
1950.0
 21
5.0
 31
0.0
  0
LINE
  5
163
330
1F
100
AcDbEntity
  8
0
  6
Continuous
 62
     7
370
    35
100
AcDbLine
 10
2000.0
 20
4190.0
 30
0.0
 11
2000.0
 21
4195.0
 31
0.0
  0
LINE
  5
164
330
1F
100
AcDbEntity
  8
0
  6
Continuous
 62
     7
370
    35
100
AcDbLine
 10
2000.0
 20
10.0
 30
0.0
 11
2000.0
 21
5.0
 31
0.0
  0
LINE
  5
165
330
1F
100
AcDbEntity
  8
0
  6
Continuous
 62
     7
370
    35
100
AcDbLine
 10
2050.0
 20
4190.0
 30
0.0
 11
2050.0
 21
4195.0
 31
0.0
  0
LINE
  5
166
330
1F
100
AcDbEntity
  8
0
  6
Continuous
 62
     7
370
    35
100
AcDbLine
 10
2050.0
 20
10.0
 30
0.0
 11
2050.0
 21
5.0
 31
0.0
  0
LINE
  5
167
330
1F
100
AcDbEntity
  8
0
  6
Continuous
 62
     7
370
    35
100
AcDbLine
 10
2100.0
 20
4190.0
 30
0.0
 11
2100.0
 21
4195.0
 31
0.0
  0
LINE
  5
168
330
1F
100
AcDbEntity
  8
0
  6
Continuous
 62
     7
370
    35
100
AcDbLine
 10
2100.0
 20
10.0
 30
0.0
 11
2100.0
 21
5.0
 31
0.0
  0
LINE
  5
169
330
1F
100
AcDbEntity
  8
0
  6
Continuous
 62
     7
370
    35
100
AcDbLine
 10
2150.0
 20
4190.0
 30
0.0
 11
2150.0
 21
4195.0
 31
0.0
  0
LINE
  5
16A
330
1F
100
AcDbEntity
  8
0
  6
Continuous
 62
     7
370
    35
100
AcDbLine
 10
2150.0
 20
10.0
 30
0.0
 11
2150.0
 21
5.0
 31
0.0
  0
LINE
  5
16B
330
1F
100
AcDbEntity
  8
0
  6
Continuous
 62
     7
370
    35
100
AcDbLine
 10
2200.0
 20
4190.0
 30
0.0
 11
2200.0
 21
4195.0
 31
0.0
  0
LINE
  5
16C
330
1F
100
AcDbEntity
  8
0
  6
Continuous
 62
     7
370
    35
100
AcDbLine
 10
2200.0
 20
10.0
 30
0.0
 11
2200.0
 21
5.0
 31
0.0
  0
LINE
  5
16D
330
1F
100
AcDbEntity
  8
0
  6
Continuous
 62
     7
370
    35
100
AcDbLine
 10
2250.0
 20
4190.0
 30
0.0
 11
2250.0
 21
4195.0
 31
0.0
  0
LINE
  5
16E
330
1F
100
AcDbEntity
  8
0
  6
Continuous
 62
     7
370
    35
100
AcDbLine
 10
2250.0
 20
10.0
 30
0.0
 11
2250.0
 21
5.0
 31
0.0
  0
LINE
  5
16F
330
1F
100
AcDbEntity
  8
0
  6
Continuous
 62
     7
370
    35
100
AcDbLine
 10
2300.0
 20
4190.0
 30
0.0
 11
2300.0
 21
4195.0
 31
0.0
  0
LINE
  5
170
330
1F
100
AcDbEntity
  8
0
  6
Continuous
 62
     7
370
    35
100
AcDbLine
 10
2300.0
 20
10.0
 30
0.0
 11
2300.0
 21
5.0
 31
0.0
  0
LINE
  5
171
330
1F
100
AcDbEntity
  8
0
  6
Continuous
 62
     7
370
    35
100
AcDbLine
 10
2350.0
 20
4190.0
 30
0.0
 11
2350.0
 21
4195.0
 31
0.0
  0
LINE
  5
172
330
1F
100
AcDbEntity
  8
0
  6
Continuous
 62
     7
370
    35
100
AcDbLine
 10
2350.0
 20
10.0
 30
0.0
 11
2350.0
 21
5.0
 31
0.0
  0
LINE
  5
173
330
1F
100
AcDbEntity
  8
0
  6
Continuous
 62
     7
370
    35
100
AcDbLine
 10
2400.0
 20
4190.0
 30
0.0
 11
2400.0
 21
4195.0
 31
0.0
  0
LINE
  5
174
330
1F
100
AcDbEntity
  8
0
  6
Continuous
 62
     7
370
    35
100
AcDbLine
 10
2400.0
 20
10.0
 30
0.0
 11
2400.0
 21
5.0
 31
0.0
  0
LINE
  5
175
330
1F
100
AcDbEntity
  8
0
  6
Continuous
 62
     7
370
    35
100
AcDbLine
 10
2450.0
 20
4190.0
 30
0.0
 11
2450.0
 21
4195.0
 31
0.0
  0
LINE
  5
176
330
1F
100
AcDbEntity
  8
0
  6
Continuous
 62
     7
370
    35
100
AcDbLine
 10
2450.0
 20
10.0
 30
0.0
 11
2450.0
 21
5.0
 31
0.0
  0
LINE
  5
177
330
1F
100
AcDbEntity
  8
0
  6
Continuous
 62
     7
370
    35
100
AcDbLine
 10
2500.0
 20
4190.0
 30
0.0
 11
2500.0
 21
4195.0
 31
0.0
  0
LINE
  5
178
330
1F
100
AcDbEntity
  8
0
  6
Continuous
 62
     7
370
    35
100
AcDbLine
 10
2500.0
 20
10.0
 30
0.0
 11
2500.0
 21
5.0
 31
0.0
  0
LINE
  5
179
330
1F
100
AcDbEntity
  8
0
  6
Continuous
 62
     7
370
    35
100
AcDbLine
 10
2550.0
 20
4190.0
 30
0.0
 11
2550.0
 21
4195.0
 31
0.0
  0
LINE
  5
17A
330
1F
100
AcDbEntity
  8
0
  6
Continuous
 62
     7
370
    35
100
AcDbLine
 10
2550.0
 20
10.0
 30
0.0
 11
2550.0
 21
5.0
 31
0.0
  0
LINE
  5
17B
330
1F
100
AcDbEntity
  8
0
  6
Continuous
 62
     7
370
    35
100
AcDbLine
 10
2600.0
 20
4190.0
 30
0.0
 11
2600.0
 21
4195.0
 31
0.0
  0
LINE
  5
17C
330
1F
100
AcDbEntity
  8
0
  6
Continuous
 62
     7
370
    35
100
AcDbLine
 10
2600.0
 20
10.0
 30
0.0
 11
2600.0
 21
5.0
 31
0.0
  0
LINE
  5
17D
330
1F
100
AcDbEntity
  8
0
  6
Continuous
 62
     7
370
    35
100
AcDbLine
 10
2650.0
 20
4190.0
 30
0.0
 11
2650.0
 21
4195.0
 31
0.0
  0
LINE
  5
17E
330
1F
100
AcDbEntity
  8
0
  6
Continuous
 62
     7
370
    35
100
AcDbLine
 10
2650.0
 20
10.0
 30
0.0
 11
2650.0
 21
5.0
 31
0.0
  0
LINE
  5
17F
330
1F
100
AcDbEntity
  8
0
  6
Continuous
 62
     7
370
    35
100
AcDbLine
 10
2700.0
 20
4190.0
 30
0.0
 11
2700.0
 21
4195.0
 31
0.0
  0
LINE
  5
180
330
1F
100
AcDbEntity
  8
0
  6
Continuous
 62
     7
370
    35
100
AcDbLine
 10
2700.0
 20
10.0
 30
0.0
 11
2700.0
 21
5.0
 31
0.0
  0
LINE
  5
181
330
1F
100
AcDbEntity
  8
0
  6
Continuous
 62
     7
370
    35
100
AcDbLine
 10
2750.0
 20
4190.0
 30
0.0
 11
2750.0
 21
4195.0
 31
0.0
  0
LINE
  5
182
330
1F
100
AcDbEntity
  8
0
  6
Continuous
 62
     7
370
    35
100
AcDbLine
 10
2750.0
 20
10.0
 30
0.0
 11
2750.0
 21
5.0
 31
0.0
  0
LINE
  5
183
330
1F
100
AcDbEntity
  8
0
  6
Continuous
 62
     7
370
    35
100
AcDbLine
 10
2800.0
 20
4190.0
 30
0.0
 11
2800.0
 21
4195.0
 31
0.0
  0
LINE
  5
184
330
1F
100
AcDbEntity
  8
0
  6
Continuous
 62
     7
370
    35
100
AcDbLine
 10
2800.0
 20
10.0
 30
0.0
 11
2800.0
 21
5.0
 31
0.0
  0
LINE
  5
185
330
1F
100
AcDbEntity
  8
0
  6
Continuous
 62
     7
370
    35
100
AcDbLine
 10
2850.0
 20
4190.0
 30
0.0
 11
2850.0
 21
4195.0
 31
0.0
  0
LINE
  5
186
330
1F
100
AcDbEntity
  8
0
  6
Continuous
 62
     7
370
    35
100
AcDbLine
 10
2850.0
 20
10.0
 30
0.0
 11
2850.0
 21
5.0
 31
0.0
  0
LINE
  5
187
330
1F
100
AcDbEntity
  8
0
  6
Continuous
 62
     7
370
    35
100
AcDbLine
 10
2900.0
 20
4190.0
 30
0.0
 11
2900.0
 21
4195.0
 31
0.0
  0
LINE
  5
188
330
1F
100
AcDbEntity
  8
0
  6
Continuous
 62
     7
370
    35
100
AcDbLine
 10
2900.0
 20
10.0
 30
0.0
 11
2900.0
 21
5.0
 31
0.0
  0
LINE
  5
189
330
1F
100
AcDbEntity
  8
0
  6
Continuous
 62
     7
370
    35
100
AcDbLine
 10
2950.0
 20
4190.0
 30
0.0
 11
2950.0
 21
4195.0
 31
0.0
  0
LINE
  5
18A
330
1F
100
AcDbEntity
  8
0
  6
Continuous
 62
     7
370
    35
100
AcDbLine
 10
2950.0
 20
10.0
 30
0.0
 11
2950.0
 21
5.0
 31
0.0
  0
LINE
  5
18B
330
1F
100
AcDbEntity
  8
0
  6
Continuous
 62
     7
370
    35
100
AcDbLine
 10
3000.0
 20
4190.0
 30
0.0
 11
3000.0
 21
4195.0
 31
0.0
  0
LINE
  5
18C
330
1F
100
AcDbEntity
  8
0
  6
Continuous
 62
     7
370
    35
100
AcDbLine
 10
3000.0
 20
10.0
 30
0.0
 11
3000.0
 21
5.0
 31
0.0
  0
LINE
  5
18D
330
1F
100
AcDbEntity
  8
0
  6
Continuous
 62
     7
370
    35
100
AcDbLine
 10
3050.0
 20
4190.0
 30
0.0
 11
3050.0
 21
4195.0
 31
0.0
  0
LINE
  5
18E
330
1F
100
AcDbEntity
  8
0
  6
Continuous
 62
     7
370
    35
100
AcDbLine
 10
3050.0
 20
10.0
 30
0.0
 11
3050.0
 21
5.0
 31
0.0
  0
LINE
  5
18F
330
1F
100
AcDbEntity
  8
0
  6
Continuous
 62
     7
370
    35
100
AcDbLine
 10
3100.0
 20
4190.0
 30
0.0
 11
3100.0
 21
4195.0
 31
0.0
  0
LINE
  5
190
330
1F
100
AcDbEntity
  8
0
  6
Continuous
 62
     7
370
    35
100
AcDbLine
 10
3100.0
 20
10.0
 30
0.0
 11
3100.0
 21
5.0
 31
0.0
  0
LINE
  5
191
330
1F
100
AcDbEntity
  8
0
  6
Continuous
 62
     7
370
    35
100
AcDbLine
 10
3150.0
 20
4190.0
 30
0.0
 11
3150.0
 21
4195.0
 31
0.0
  0
LINE
  5
192
330
1F
100
AcDbEntity
  8
0
  6
Continuous
 62
     7
370
    35
100
AcDbLine
 10
3150.0
 20
10.0
 30
0.0
 11
3150.0
 21
5.0
 31
0.0
  0
LINE
  5
193
330
1F
100
AcDbEntity
  8
0
  6
Continuous
 62
     7
370
    35
100
AcDbLine
 10
3200.0
 20
4190.0
 30
0.0
 11
3200.0
 21
4195.0
 31
0.0
  0
LINE
  5
194
330
1F
100
AcDbEntity
  8
0
  6
Continuous
 62
     7
370
    35
100
AcDbLine
 10
3200.0
 20
10.0
 30
0.0
 11
3200.0
 21
5.0
 31
0.0
  0
LINE
  5
195
330
1F
100
AcDbEntity
  8
0
  6
Continuous
 62
     7
370
    35
100
AcDbLine
 10
3250.0
 20
4190.0
 30
0.0
 11
3250.0
 21
4195.0
 31
0.0
  0
LINE
  5
196
330
1F
100
AcDbEntity
  8
0
  6
Continuous
 62
     7
370
    35
100
AcDbLine
 10
3250.0
 20
10.0
 30
0.0
 11
3250.0
 21
5.0
 31
0.0
  0
LINE
  5
197
330
1F
100
AcDbEntity
  8
0
  6
Continuous
 62
     7
370
    35
100
AcDbLine
 10
3300.0
 20
4190.0
 30
0.0
 11
3300.0
 21
4195.0
 31
0.0
  0
LINE
  5
198
330
1F
100
AcDbEntity
  8
0
  6
Continuous
 62
     7
370
    35
100
AcDbLine
 10
3300.0
 20
10.0
 30
0.0
 11
3300.0
 21
5.0
 31
0.0
  0
LINE
  5
199
330
1F
100
AcDbEntity
  8
0
  6
Continuous
 62
     7
370
    35
100
AcDbLine
 10
3350.0
 20
4190.0
 30
0.0
 11
3350.0
 21
4195.0
 31
0.0
  0
LINE
  5
19A
330
1F
100
AcDbEntity
  8
0
  6
Continuous
 62
     7
370
    35
100
AcDbLine
 10
3350.0
 20
10.0
 30
0.0
 11
3350.0
 21
5.0
 31
0.0
  0
LINE
  5
19B
330
1F
100
AcDbEntity
  8
0
  6
Continuous
 62
     7
370
    35
100
AcDbLine
 10
3400.0
 20
4190.0
 30
0.0
 11
3400.0
 21
4195.0
 31
0.0
  0
LINE
  5
19C
330
1F
100
AcDbEntity
  8
0
  6
Continuous
 62
     7
370
    35
100
AcDbLine
 10
3400.0
 20
10.0
 30
0.0
 11
3400.0
 21
5.0
 31
0.0
  0
LINE
  5
19D
330
1F
100
AcDbEntity
  8
0
  6
Continuous
 62
     7
370
    35
100
AcDbLine
 10
3450.0
 20
4190.0
 30
0.0
 11
3450.0
 21
4195.0
 31
0.0
  0
LINE
  5
19E
330
1F
100
AcDbEntity
  8
0
  6
Continuous
 62
     7
370
    35
100
AcDbLine
 10
3450.0
 20
10.0
 30
0.0
 11
3450.0
 21
5.0
 31
0.0
  0
LINE
  5
19F
330
1F
100
AcDbEntity
  8
0
  6
Continuous
 62
     7
370
    35
100
AcDbLine
 10
3500.0
 20
4190.0
 30
0.0
 11
3500.0
 21
4195.0
 31
0.0
  0
LINE
  5
1A0
330
1F
100
AcDbEntity
  8
0
  6
Continuous
 62
     7
370
    35
100
AcDbLine
 10
3500.0
 20
10.0
 30
0.0
 11
3500.0
 21
5.0
 31
0.0
  0
LINE
  5
1A1
330
1F
100
AcDbEntity
  8
0
  6
Continuous
 62
     7
370
    35
100
AcDbLine
 10
3550.0
 20
4190.0
 30
0.0
 11
3550.0
 21
4195.0
 31
0.0
  0
LINE
  5
1A2
330
1F
100
AcDbEntity
  8
0
  6
Continuous
 62
     7
370
    35
100
AcDbLine
 10
3550.0
 20
10.0
 30
0.0
 11
3550.0
 21
5.0
 31
0.0
  0
LINE
  5
1A3
330
1F
100
AcDbEntity
  8
0
  6
Continuous
 62
     7
370
    35
100
AcDbLine
 10
3600.0
 20
4190.0
 30
0.0
 11
3600.0
 21
4195.0
 31
0.0
  0
LINE
  5
1A4
330
1F
100
AcDbEntity
  8
0
  6
Continuous
 62
     7
370
    35
100
AcDbLine
 10
3600.0
 20
10.0
 30
0.0
 11
3600.0
 21
5.0
 31
0.0
  0
LINE
  5
1A5
330
1F
100
AcDbEntity
  8
0
  6
Continuous
 62
     7
370
    35
100
AcDbLine
 10
3650.0
 20
4190.0
 30
0.0
 11
3650.0
 21
4195.0
 31
0.0
  0
LINE
  5
1A6
330
1F
100
AcDbEntity
  8
0
  6
Continuous
 62
     7
370
    35
100
AcDbLine
 10
3650.0
 20
10.0
 30
0.0
 11
3650.0
 21
5.0
 31
0.0
  0
LINE
  5
1A7
330
1F
100
AcDbEntity
  8
0
  6
Continuous
 62
     7
370
    35
100
AcDbLine
 10
3700.0
 20
4190.0
 30
0.0
 11
3700.0
 21
4195.0
 31
0.0
  0
LINE
  5
1A8
330
1F
100
AcDbEntity
  8
0
  6
Continuous
 62
     7
370
    35
100
AcDbLine
 10
3700.0
 20
10.0
 30
0.0
 11
3700.0
 21
5.0
 31
0.0
  0
LINE
  5
1A9
330
1F
100
AcDbEntity
  8
0
  6
Continuous
 62
     7
370
    35
100
AcDbLine
 10
3750.0
 20
4190.0
 30
0.0
 11
3750.0
 21
4195.0
 31
0.0
  0
LINE
  5
1AA
330
1F
100
AcDbEntity
  8
0
  6
Continuous
 62
     7
370
    35
100
AcDbLine
 10
3750.0
 20
10.0
 30
0.0
 11
3750.0
 21
5.0
 31
0.0
  0
LINE
  5
1AB
330
1F
100
AcDbEntity
  8
0
  6
Continuous
 62
     7
370
    35
100
AcDbLine
 10
3800.0
 20
4190.0
 30
0.0
 11
3800.0
 21
4195.0
 31
0.0
  0
LINE
  5
1AC
330
1F
100
AcDbEntity
  8
0
  6
Continuous
 62
     7
370
    35
100
AcDbLine
 10
3800.0
 20
10.0
 30
0.0
 11
3800.0
 21
5.0
 31
0.0
  0
LINE
  5
1AD
330
1F
100
AcDbEntity
  8
0
  6
Continuous
 62
     7
370
    35
100
AcDbLine
 10
3850.0
 20
4190.0
 30
0.0
 11
3850.0
 21
4195.0
 31
0.0
  0
LINE
  5
1AE
330
1F
100
AcDbEntity
  8
0
  6
Continuous
 62
     7
370
    35
100
AcDbLine
 10
3850.0
 20
10.0
 30
0.0
 11
3850.0
 21
5.0
 31
0.0
  0
LINE
  5
1AF
330
1F
100
AcDbEntity
  8
0
  6
Continuous
 62
     7
370
    35
100
AcDbLine
 10
3900.0
 20
4190.0
 30
0.0
 11
3900.0
 21
4195.0
 31
0.0
  0
LINE
  5
1B0
330
1F
100
AcDbEntity
  8
0
  6
Continuous
 62
     7
370
    35
100
AcDbLine
 10
3900.0
 20
10.0
 30
0.0
 11
3900.0
 21
5.0
 31
0.0
  0
LINE
  5
1B1
330
1F
100
AcDbEntity
  8
0
  6
Continuous
 62
     7
370
    35
100
AcDbLine
 10
3950.0
 20
4190.0
 30
0.0
 11
3950.0
 21
4195.0
 31
0.0
  0
LINE
  5
1B2
330
1F
100
AcDbEntity
  8
0
  6
Continuous
 62
     7
370
    35
100
AcDbLine
 10
3950.0
 20
10.0
 30
0.0
 11
3950.0
 21
5.0
 31
0.0
  0
LINE
  5
1B3
330
1F
100
AcDbEntity
  8
0
  6
Continuous
 62
     7
370
    35
100
AcDbLine
 10
4000.0
 20
4190.0
 30
0.0
 11
4000.0
 21
4195.0
 31
0.0
  0
LINE
  5
1B4
330
1F
100
AcDbEntity
  8
0
  6
Continuous
 62
     7
370
    35
100
AcDbLine
 10
4000.0
 20
10.0
 30
0.0
 11
4000.0
 21
5.0
 31
0.0
  0
LINE
  5
1B5
330
1F
100
AcDbEntity
  8
0
  6
Continuous
 62
     7
370
    35
100
AcDbLine
 10
4050.0
 20
4190.0
 30
0.0
 11
4050.0
 21
4195.0
 31
0.0
  0
LINE
  5
1B6
330
1F
100
AcDbEntity
  8
0
  6
Continuous
 62
     7
370
    35
100
AcDbLine
 10
4050.0
 20
10.0
 30
0.0
 11
4050.0
 21
5.0
 31
0.0
  0
LINE
  5
1B7
330
1F
100
AcDbEntity
  8
0
  6
Continuous
 62
     7
370
    35
100
AcDbLine
 10
4100.0
 20
4190.0
 30
0.0
 11
4100.0
 21
4195.0
 31
0.0
  0
LINE
  5
1B8
330
1F
100
AcDbEntity
  8
0
  6
Continuous
 62
     7
370
    35
100
AcDbLine
 10
4100.0
 20
10.0
 30
0.0
 11
4100.0
 21
5.0
 31
0.0
  0
LINE
  5
1B9
330
1F
100
AcDbEntity
  8
0
  6
Continuous
 62
     7
370
    35
100
AcDbLine
 10
4150.0
 20
4190.0
 30
0.0
 11
4150.0
 21
4195.0
 31
0.0
  0
LINE
  5
1BA
330
1F
100
AcDbEntity
  8
0
  6
Continuous
 62
     7
370
    35
100
AcDbLine
 10
4150.0
 20
10.0
 30
0.0
 11
4150.0
 21
5.0
 31
0.0
  0
MTEXT
  5
1BC
330
1F
100
AcDbEntity
  8
0
  6
Continuous
 62
     7
370
     0
100
AcDbMText
 10
1172.2539075933
 20
3838.5092949248
 30
0.0
 40
26.4583333333
 41
0.0
 71
     1
 72
     1
  1
GAS
  7
SLDTEXTSTYLE0
 73
     1
 44
1.0
  0
MTEXT
  5
1BD
330
1F
100
AcDbEntity
  8
0
  6
Continuous
 62
     7
370
     0
100
AcDbMText
 10
756.5723938758
 20
3838.5092949248
 30
0.0
 40
26.4583333333
 41
0.0
 71
     1
 72
     1
  1
GAS
  7
SLDTEXTSTYLE0
 73
     1
 44
1.0
  0
MTEXT
  5
1BE
330
1F
100
AcDbEntity
  8
0
  6
Continuous
 62
     7
370
     0
100
AcDbMText
 10
2860.6354181398
 20
3147.5494131972
 30
0.0
 40
26.4583333333
 41
0.0
 71
     1
 72
     1
  1
GAS
  7
SLDTEXTSTYLE0
 73
     1
 44
1.0
  0
MTEXT
  5
1BF
330
1F
100
AcDbEntity
  8
0
  6
Continuous
 62
     7
370
     0
100
AcDbMText
 10
3270.8881322249
 20
3147.5494131972
 30
0.0
 40
26.4583333333
 41
0.0
 71
     1
 72
     1
  1
GAS
  7
SLDTEXTSTYLE0
 73
     1
 44
1.0
  0
MTEXT
  5
1C0
330
1F
100
AcDbEntity
  8
0
  6
Continuous
 62
     7
370
     0
100
AcDbMText
 10
1581.8299283046
 20
3838.5092949248
 30
0.0
 40
26.4583333333
 41
0.0
 71
     1
 72
     1
  1
GAS
  7
SLDTEXTSTYLE0
 73
     1
 44
1.0
  0
MTEXT
  5
1C1
330
1F
100
AcDbEntity
  8
0
  6
Continuous
 62
     7
370
     0
100
AcDbMText
 10
1083.9204263056
 20
2424.7728314494
 30
0.0
 40
26.4583333333
 41
0.0
 71
     1
 72
     1
  1
GAS
  7
SLDTEXTSTYLE0
 73
     1
 44
1.0
  0
MTEXT
  5
1C2
330
1F
100
AcDbEntity
  8
0
  6
Continuous
 62
     7
370
     0
100
AcDbMText
 10
2750.0844253254
 20
1716.5291511025
 30
0.0
 40
26.4583333333
 41
0.0
 71
     1
 72
     1
  1
GAS
  7
SLDTEXTSTYLE0
 73
     1
 44
1.0
  0
MTEXT
  5
1C3
330
1F
100
AcDbEntity
  8
0
  6
Continuous
 62
     7
370
     0
100
AcDbMText
 10
667.7572532053
 20
2424.7728314494
 30
0.0
 40
26.4583333333
 41
0.0
 71
     1
 72
     1
  1
GAS
  7
SLDTEXTSTYLE0
 73
     1
 44
1.0
  0
MTEXT
  5
1C4
330
1F
100
AcDbEntity
  8
0
  6
Continuous
 62
     7
370
     0
100
AcDbMText
 10
344.7012336494
 20
3128.0786525196
 30
0.0
 40
26.4583333333
 41
0.0
 71
     1
 72
     1
  1
GAS
  7
SLDTEXTSTYLE0
 73
     1
 44
1.0
  0
MTEXT
  5
1C5
330
1F
100
AcDbEntity
  8
0
  6
Continuous
 62
     7
370
     0
100
AcDbMText
 10
981.5930680591
 20
1017.702508985
 30
0.0
 40
26.4583333333
 41
0.0
 71
     1
 72
     1
  1
GAS
  7
SLDTEXTSTYLE0
 73
     1
 44
1.0
  0
MTEXT
  5
1C6
330
1F
100
AcDbEntity
  8
0
  6
Continuous
 62
     7
370
     0
100
AcDbMText
 10
1715.7144938861
 20
1017.702508985
 30
0.0
 40
26.4583333333
 41
0.0
 71
     1
 72
     1
  1
GAS
  7
SLDTEXTSTYLE0
 73
     1
 44
1.0
  0
MTEXT
  5
1C7
330
1F
100
AcDbEntity
  8
0
  6
Continuous
 62
     7
370
     0
100
AcDbMText
 10
2449.9518861738
 20
1017.702508985
 30
0.0
 40
26.4583333333
 41
0.0
 71
     1
 72
     1
  1
GAS
  7
SLDTEXTSTYLE0
 73
     1
 44
1.0
  0
MTEXT
  5
1C8
330
1F
100
AcDbEntity
  8
0
  6
Continuous
 62
     7
370
     0
100
AcDbMText
 10
1073.6050435973
 20
3225.3440539441
 30
0.0
 40
26.4583333333
 41
0.0
 71
     1
 72
     1
  1
GAS
  7
SLDTEXTSTYLE0
 73
     1
 44
1.0
  0
MTEXT
  5
1C9
330
1F
100
AcDbEntity
  8
0
  6
Continuous
 62
     7
370
     0
100
AcDbMText
 10
1287.4130045581
 20
311.0699213769
 30
0.0
 40
26.4583333333
 41
0.0
 71
     1
 72
     1
  1
GAS
  7
SLDTEXTSTYLE0
 73
     1
 44
1.0
  0
MTEXT
  5
1CA
330
1F
100
AcDbEntity
  8
0
  6
Continuous
 62
     7
370
     0
100
AcDbMText
 10
2134.7030218729
 20
3225.3440539441
 30
0.0
 40
26.4583333333
 41
0.0
 71
     1
 72
     1
  1
GAS
  7
SLDTEXTSTYLE0
 73
     1
 44
1.0
  0
MTEXT
  5
1CB
330
1F
100
AcDbEntity
  8
0
  6
Continuous
 62
     7
370
     0
100
AcDbMText
 10
342.6206311403
 20
3973.8700349013
 30
0.0
 40
26.4583333333
 41
0.0
 71
     1
 72
     1
  1
GAS
  7
SLDTEXTSTYLE0
 73
     1
 44
1.0
  0
MTEXT
  5
1CC
330
1F
100
AcDbEntity
  8
0
  6
Continuous
 62
     7
370
     0
100
AcDbMText
 10
2864.8740689115
 20
2527.171307886
 30
0.0
 40
26.4583333333
 41
0.0
 71
     1
 72
     1
  1
GAS
  7
SLDTEXTSTYLE0
 73
     1
 44
1.0
  0
MTEXT
  5
1CD
330
1F
100
AcDbEntity
  8
0
  6
Continuous
 62
     7
370
     0
100
AcDbMText
 10
341.9770451187
 20
1823.9024107442
 30
0.0
 40
26.4583333333
 41
0.0
 71
     1
 72
     1
  1
GAS
  7
SLDTEXTSTYLE0
 73
     1
 44
1.0
  0
MTEXT
  5
1CE
330
1F
100
AcDbEntity
  8
0
  6
Continuous
 62
     7
370
     0
100
AcDbMText
 10
2462.1800253531
 20
2424.7728314494
 30
0.0
 40
26.4583333333
 41
0.0
 71
     1
 72
     1
  1
GAS
  7
SLDTEXTSTYLE0
 73
     1
 44
1.0
  0
MTEXT
  5
1CF
330
1F
100
AcDbEntity
  8
0
  6
Continuous
 62
     7
370
     0
100
AcDbMText
 10
1699.2979816964
 20
1716.5291511025
 30
0.0
 40
26.4583333333
 41
0.0
 71
     1
 72
     1
  1
GAS
  7
SLDTEXTSTYLE0
 73
     1
 44
1.0
  0
MTEXT
  5
1D0
330
1F
100
AcDbEntity
  8
0
  6
Continuous
 62
     7
370
     0
100
AcDbMText
 10
342.6206311403
 20
3520.5354204479
 30
0.0
 40
34.3958333333
 41
0.0
 71
     1
 72
     1
  1
Air
  7
SLDTEXTSTYLE0
 73
     1
 44
1.0
  0
MTEXT
  5
1D1
330
1F
100
AcDbEntity
  8
0
  6
Continuous
 62
     7
370
     0
100
AcDbMText
 10
741.797378462
 20
3520.5354204479
 30
0.0
 40
34.3958333333
 41
0.0
 71
     1
 72
     1
  1
Altar
  7
SLDTEXTSTYLE0
 73
     1
 44
1.0
  0
MTEXT
  5
1D2
330
1F
100
AcDbEntity
  8
0
  6
Continuous
 62
     7
370
     0
100
AcDbMText
 10
460.4076921054
 20
2113.8839214047
 30
0.0
 40
34.3958333333
 41
0.0
 71
     1
 72
     1
  1
Capital
  7
SLDTEXTSTYLE0
 73
     1
 44
1.0
  0
MTEXT
  5
1D3
330
1F
100
AcDbEntity
  8
0
  6
Continuous
 62
     7
370
     0
100
AcDbMText
 10
1150.1220063589
 20
3520.5354204479
 30
0.0
 40
34.3958333333
 41
0.0
 71
     1
 72
     1
  1
Akan
  7
SLDTEXTSTYLE0
 73
     1
 44
1.0
  0
MTEXT
  5
1D4
330
1F
100
AcDbEntity
  8
0
  6
Continuous
 62
     7
370
     0
100
AcDbMText
 10
1200.5728188084
 20
2809.9095471182
 30
0.0
 40
34.3958333333
 41
0.0
 71
     1
 72
     1
  1
Baula
  7
SLDTEXTSTYLE0
 73
     1
 44
1.0
  0
MTEXT
  5
1D5
330
1F
100
AcDbEntity
  8
0
  6
Continuous
 62
     7
370
     0
100
AcDbMText
 10
1545.7869087542
 20
3520.5354204479
 30
0.0
 40
34.3958333333
 41
0.0
 71
     1
 72
     1
  1
Azuma
  7
SLDTEXTSTYLE0
 73
     1
 44
1.0
  0
MTEXT
  5
1D6
330
1F
100
AcDbEntity
  8
0
  6
Continuous
 62
     7
370
     0
100
AcDbMText
 10
1689.0283284043
 20
690.4947635461
 30
0.0
 40
34.3958333333
 41
0.0
 71
     1
 72
     1
  1
Elbrus
  7
SLDTEXTSTYLE0
 73
     1
 44
1.0
  0
MTEXT
  5
1D7
330
1F
100
AcDbEntity
  8
0
  6
Continuous
 62
     7
370
     0
100
AcDbMText
 10
601.7909881028
 20
690.4947635461
 30
0.0
 40
34.3958333333
 41
0.0
 71
     1
 72
     1
  1
Ebeko
  7
SLDTEXTSTYLE0
 73
     1
 44
1.0
  0
MTEXT
  5
1D8
330
1F
100
AcDbEntity
  8
0
  6
Continuous
 62
     7
370
     0
100
AcDbMText
 10
2798.0843176223
 20
690.4947635461
 30
0.0
 40
34.3958333333
 41
0.0
 71
     1
 72
     1
  1
Enep
  7
SLDTEXTSTYLE0
 73
     1
 44
1.0
  0
MTEXT
  5
1D9
330
1F
100
AcDbEntity
  8
0
  6
Continuous
 62
     7
370
     0
100
AcDbMText
 10
1476.3721997919
 20
318.8716847885
 30
0.0
 40
34.3958333333
 41
0.0
 71
     1
 72
     1
  1
Foessa
  7
SLDTEXTSTYLE0
 73
     1
 44
1.0
  0
MTEXT
  5
1DA
330
1F
100
AcDbEntity
  8
0
  6
Continuous
 62
     7
370
     0
100
AcDbMText
 10
3160.7503611743
 20
1394.9382565455
 30
0.0
 40
34.3958333333
 41
0.0
 71
     1
 72
     1
  1
Drum
  7
SLDTEXTSTYLE0
 73
     1
 44
1.0
  0
MTEXT
  5
1DB
330
1F
100
AcDbEntity
  8
0
  6
Continuous
 62
     7
370
     0
100
AcDbMText
 10
769.2829437118
 20
1394.9382565455
 30
0.0
 40
34.3958333333
 41
0.0
 71
     1
 72
     1
  1
Danau
  7
SLDTEXTSTYLE0
 73
     1
 44
1.0
  0
MTEXT
  5
1DC
330
1F
100
AcDbEntity
  8
0
  6
Continuous
 62
     7
370
     0
100
AcDbMText
 10
2110.3283870864
 20
2113.8839214047
 30
0.0
 40
34.3958333333
 41
0.0
 71
     1
 72
     1
  1
Colo
  7
SLDTEXTSTYLE0
 73
     1
 44
1.0
  0
MTEXT
  5
1DD
330
1F
100
AcDbEntity
  8
0
  6
Continuous
 62
     7
370
     0
100
AcDbMText
 10
3467.2737789146
 20
2809.9095471182
 30
0.0
 40
34.3958333333
 41
0.0
 71
     1
 72
     1
  1
Bromo
  7
SLDTEXTSTYLE0
 73
     1
 44
1.0
  0
MTEXT
  5
1DE
330
1F
100
AcDbEntity
  8
0
  6
Continuous
 62
     7
370
     0
100
AcDbMText
 10
2675.9303642062
 20
2809.9095471182
 30
0.0
 40
34.3958333333
 41
0.0
 71
     1
 72
     1
  1
Bennett
  7
SLDTEXTSTYLE0
 73
     1
 44
1.0
  0
MTEXT
  5
1DF
330
1F
100
AcDbEntity
  8
0
  6
Continuous
 62
     7
370
     0
100
AcDbMText
 10
1961.6326231712
 20
2809.9095471182
 30
0.0
 40
34.3958333333
 41
0.0
 71
     1
 72
     1
  1
Bely
  7
SLDTEXTSTYLE0
 73
     1
 44
1.0
  0
MTEXT
  5
1E0
330
1F
100
AcDbEntity
  8
0
  6
Continuous
 62
     7
370
     0
100
AcDbMText
 10
1108.7203260974
 20
2113.8839214047
 30
0.0
 40
34.3958333333
 41
0.0
 71
     1
 72
     1
  1
Cima
  7
SLDTEXTSTYLE0
 73
     1
 44
1.0
  0
MTEXT
  5
1E1
330
1F
100
AcDbEntity
  8
0
  6
Continuous
 62
     7
370
     0
100
AcDbMText
 10
454.8661439725
 20
2809.9095471182
 30
0.0
 40
34.3958333333
 41
0.0
 71
     1
 72
     1
  1
Baluran
  7
SLDTEXTSTYLE0
 73
     1
 44
1.0
  0
MTEXT
  5
1E2
330
1F
100
AcDbEntity
  8
0
  6
Continuous
 62
     7
370
     0
100
AcDbMText
 10
3158.4573034345
 20
2113.8839214047
 30
0.0
 40
34.3958333333
 41
0.0
 71
     1
 72
     1
  1
Cusin
  7
SLDTEXTSTYLE0
 73
     1
 44
1.0
  0
MTEXT
  5
1E3
330
1F
100
AcDbEntity
  8
0
  6
Continuous
 62
     7
370
     0
100
AcDbMText
 10
1978.4817132765
 20
1394.9382565455
 30
0.0
 40
34.3958333333
 41
0.0
 71
     1
 72
     1
  1
Dempo
  7
SLDTEXTSTYLE0
 73
     1
 44
1.0
  0
MTEXT
  5
1E4
330
1F
100
AcDbEntity
  8
0
  6
Continuous
 62
     7
370
     0
100
AcDbMText
 10
3704.2059982289
 20
3646.1800547442
 30
0.0
 40
52.9166666667
 41
0.0
 71
     2
 72
     1
  1
HOLE PATTERNS - GAS 
  7
SLDTEXTSTYLE0
 73
     1
 44
1.0
  0
MTEXT
  5
1E6
330
1F
100
AcDbEntity
  8
0
  6
Continuous
 62
     7
370
     0
100
AcDbMText
 10
7.3396881428
 20
32.5136245056
 30
0.0
 40
3.96875
 41
0.0
 71
     2
 72
     1
  1
A
  7
SLDTEXTSTYLE1
 73
     1
 44
1.0
  0
MTEXT
  5
1E7
330
1F
100
AcDbEntity
  8
0
  6
Continuous
 62
     7
370
     0
100
AcDbMText
 10
4192.3396881428
 20
32.5136245056
 30
0.0
 40
3.96875
 41
0.0
 71
     2
 72
     1
  1
A
  7
SLDTEXTSTYLE1
 73
     1
 44
1.0
  0
MTEXT
  5
1E8
330
1F
100
AcDbEntity
  8
0
  6
Continuous
 62
     7
370
     0
100
AcDbMText
 10
7.4706018241
 20
77.5136245056
 30
0.0
 40
3.96875
 41
0.0
 71
     2
 72
     1
  1
B
  7
SLDTEXTSTYLE1
 73
     1
 44
1.0
  0
MTEXT
  5
1E9
330
1F
100
AcDbEntity
  8
0
  6
Continuous
 62
     7
370
     0
100
AcDbMText
 10
4192.4706018241
 20
77.5136245056
 30
0.0
 40
3.96875
 41
0.0
 71
     2
 72
     1
  1
B
  7
SLDTEXTSTYLE1
 73
     1
 44
1.0
  0
MTEXT
  5
1EA
330
1F
100
AcDbEntity
  8
0
  6
Continuous
 62
     7
370
     0
100
AcDbMText
 10
7.458658902
 20
127.5136245056
 30
0.0
 40
3.96875
 41
0.0
 71
     2
 72
     1
  1
C
  7
SLDTEXTSTYLE1
 73
     1
 44
1.0
  0
MTEXT
  5
1EB
330
1F
100
AcDbEntity
  8
0
  6
Continuous
 62
     7
370
     0
100
AcDbMText
 10
4192.458658902
 20
127.5136245056
 30
0.0
 40
3.96875
 41
0.0
 71
     2
 72
     1
  1
C
  7
SLDTEXTSTYLE1
 73
     1
 44
1.0
  0
MTEXT
  5
1EC
330
1F
100
AcDbEntity
  8
0
  6
Continuous
 62
     7
370
     0
100
AcDbMText
 10
7.4526872821
 20
177.5136245056
 30
0.0
 40
3.96875
 41
0.0
 71
     2
 72
     1
  1
D
  7
SLDTEXTSTYLE1
 73
     1
 44
1.0
  0
MTEXT
  5
1ED
330
1F
100
AcDbEntity
  8
0
  6
Continuous
 62
     7
370
     0
100
AcDbMText
 10
4192.4526872821
 20
177.5136245056
 30
0.0
 40
3.96875
 41
0.0
 71
     2
 72
     1
  1
D
  7
SLDTEXTSTYLE1
 73
     1
 44
1.0
  0
MTEXT
  5
1EE
330
1F
100
AcDbEntity
  8
0
  6
Continuous
 62
     7
370
     0
100
AcDbMText
 10
7.5078089051
 20
227.5136245056
 30
0.0
 40
3.96875
 41
0.0
 71
     2
 72
     1
  1
E
  7
SLDTEXTSTYLE1
 73
     1
 44
1.0
  0
MTEXT
  5
1EF
330
1F
100
AcDbEntity
  8
0
  6
Continuous
 62
     7
370
     0
100
AcDbMText
 10
4192.5078089051
 20
227.5136245056
 30
0.0
 40
3.96875
 41
0.0
 71
     2
 72
     1
  1
E
  7
SLDTEXTSTYLE1
 73
     1
 44
1.0
  0
MTEXT
  5
1F0
330
1F
100
AcDbEntity
  8
0
  6
Continuous
 62
     7
370
     0
100
AcDbMText
 10
7.4577402091
 20
277.5136245056
 30
0.0
 40
3.96875
 41
0.0
 71
     2
 72
     1
  1
F
  7
SLDTEXTSTYLE1
 73
     1
 44
1.0
  0
MTEXT
  5
1F1
330
1F
100
AcDbEntity
  8
0
  6
Continuous
 62
     7
370
     0
100
AcDbMText
 10
4192.4577402091
 20
277.5136245056
 30
0.0
 40
3.96875
 41
0.0
 71
     2
 72
     1
  1
F
  7
SLDTEXTSTYLE1
 73
     1
 44
1.0
  0
MTEXT
  5
1F2
330
1F
100
AcDbEntity
  8
0
  6
Continuous
 62
     7
370
     0
100
AcDbMText
 10
7.4866788853
 20
327.5136245056
 30
0.0
 40
3.96875
 41
0.0
 71
     2
 72
     1
  1
G
  7
SLDTEXTSTYLE1
 73
     1
 44
1.0
  0
MTEXT
  5
1F3
330
1F
100
AcDbEntity
  8
0
  6
Continuous
 62
     7
370
     0
100
AcDbMText
 10
4192.4866788853
 20
327.5136245056
 30
0.0
 40
3.96875
 41
0.0
 71
     2
 72
     1
  1
G
  7
SLDTEXTSTYLE1
 73
     1
 44
1.0
  0
MTEXT
  5
1F4
330
1F
100
AcDbEntity
  8
0
  6
Continuous
 62
     7
370
     0
100
AcDbMText
 10
7.4903537836
 20
377.5136245056
 30
0.0
 40
3.96875
 41
0.0
 71
     2
 72
     1
  1
H
  7
SLDTEXTSTYLE1
 73
     1
 44
1.0
  0
MTEXT
  5
1F5
330
1F
100
AcDbEntity
  8
0
  6
Continuous
 62
     7
370
     0
100
AcDbMText
 10
4192.4903537836
 20
377.5136245056
 30
0.0
 40
3.96875
 41
0.0
 71
     2
 72
     1
  1
H
  7
SLDTEXTSTYLE1
 73
     1
 44
1.0
  0
MTEXT
  5
1F6
330
1F
100
AcDbEntity
  8
0
  6
Continuous
 62
     7
370
     0
100
AcDbMText
 10
7.4650897412
 20
427.5136245056
 30
0.0
 40
3.96875
 41
0.0
 71
     2
 72
     1
  1
J
  7
SLDTEXTSTYLE1
 73
     1
 44
1.0
  0
MTEXT
  5
1F7
330
1F
100
AcDbEntity
  8
0
  6
Continuous
 62
     7
370
     0
100
AcDbMText
 10
4192.4650897412
 20
427.5136245056
 30
0.0
 40
3.96875
 41
0.0
 71
     2
 72
     1
  1
J
  7
SLDTEXTSTYLE1
 73
     1
 44
1.0
  0
MTEXT
  5
1F8
330
1F
100
AcDbEntity
  8
0
  6
Continuous
 62
     7
370
     0
100
AcDbMText
 10
7.4885163503
 20
477.5136245056
 30
0.0
 40
3.96875
 41
0.0
 71
     2
 72
     1
  1
K
  7
SLDTEXTSTYLE1
 73
     1
 44
1.0
  0
MTEXT
  5
1F9
330
1F
100
AcDbEntity
  8
0
  6
Continuous
 62
     7
370
     0
100
AcDbMText
 10
4192.4885163503
 20
477.5136245056
 30
0.0
 40
3.96875
 41
0.0
 71
     2
 72
     1
  1
K
  7
SLDTEXTSTYLE1
 73
     1
 44
1.0
  0
MTEXT
  5
1FA
330
1F
100
AcDbEntity
  8
0
  6
Continuous
 62
     7
370
     0
100
AcDbMText
 10
7.4545247471
 20
527.5136245056
 30
0.0
 40
3.96875
 41
0.0
 71
     2
 72
     1
  1
L
  7
SLDTEXTSTYLE1
 73
     1
 44
1.0
  0
MTEXT
  5
1FB
330
1F
100
AcDbEntity
  8
0
  6
Continuous
 62
     7
370
     0
100
AcDbMText
 10
4192.4545247471
 20
527.5136245056
 30
0.0
 40
3.96875
 41
0.0
 71
     2
 72
     1
  1
L
  7
SLDTEXTSTYLE1
 73
     1
 44
1.0
  0
MTEXT
  5
1FC
330
1F
100
AcDbEntity
  8
0
  6
Continuous
 62
     7
370
     0
100
AcDbMText
 10
7.3617368396
 20
577.5136245056
 30
0.0
 40
3.96875
 41
0.0
 71
     2
 72
     1
  1
M
  7
SLDTEXTSTYLE1
 73
     1
 44
1.0
  0
MTEXT
  5
1FD
330
1F
100
AcDbEntity
  8
0
  6
Continuous
 62
     7
370
     0
100
AcDbMText
 10
4192.3617368396
 20
577.5136245056
 30
0.0
 40
3.96875
 41
0.0
 71
     2
 72
     1
  1
M
  7
SLDTEXTSTYLE1
 73
     1
 44
1.0
  0
MTEXT
  5
1FE
330
1F
100
AcDbEntity
  8
0
  6
Continuous
 62
     7
370
     0
100
AcDbMText
 10
7.4637115803
 20
627.5136245056
 30
0.0
 40
3.96875
 41
0.0
 71
     2
 72
     1
  1
N
  7
SLDTEXTSTYLE1
 73
     1
 44
1.0
  0
MTEXT
  5
1FF
330
1F
100
AcDbEntity
  8
0
  6
Continuous
 62
     7
370
     0
100
AcDbMText
 10
4192.4637115803
 20
627.5136245056
 30
0.0
 40
3.96875
 41
0.0
 71
     2
 72
     1
  1
N
  7
SLDTEXTSTYLE1
 73
     1
 44
1.0
  0
MTEXT
  5
200
330
1F
100
AcDbEntity
  8
0
  6
Continuous
 62
     7
370
     0
100
AcDbMText
 10
7.4848415842
 20
677.5136245056
 30
0.0
 40
3.96875
 41
0.0
 71
     2
 72
     1
  1
P
  7
SLDTEXTSTYLE1
 73
     1
 44
1.0
  0
MTEXT
  5
201
330
1F
100
AcDbEntity
  8
0
  6
Continuous
 62
     7
370
     0
100
AcDbMText
 10
4192.4848415842
 20
677.5136245056
 30
0.0
 40
3.96875
 41
0.0
 71
     2
 72
     1
  1
P
  7
SLDTEXTSTYLE1
 73
     1
 44
1.0
  0
MTEXT
  5
202
330
1F
100
AcDbEntity
  8
0
  6
Continuous
 62
     7
370
     0
100
AcDbMText
 10
7.4444191577
 20
727.5136245056
 30
0.0
 40
3.96875
 41
0.0
 71
     2
 72
     1
  1
R
  7
SLDTEXTSTYLE1
 73
     1
 44
1.0
  0
MTEXT
  5
203
330
1F
100
AcDbEntity
  8
0
  6
Continuous
 62
     7
370
     0
100
AcDbMText
 10
4192.4444191577
 20
727.5136245056
 30
0.0
 40
3.96875
 41
0.0
 71
     2
 72
     1
  1
R
  7
SLDTEXTSTYLE1
 73
     1
 44
1.0
  0
MTEXT
  5
204
330
1F
100
AcDbEntity
  8
0
  6
Continuous
 62
     7
370
     0
100
AcDbMText
 10
7.4880569456
 20
777.5136245056
 30
0.0
 40
3.96875
 41
0.0
 71
     2
 72
     1
  1
T
  7
SLDTEXTSTYLE1
 73
     1
 44
1.0
  0
MTEXT
  5
205
330
1F
100
AcDbEntity
  8
0
  6
Continuous
 62
     7
370
     0
100
AcDbMText
 10
4192.4880569456
 20
777.5136245056
 30
0.0
 40
3.96875
 41
0.0
 71
     2
 72
     1
  1
T
  7
SLDTEXTSTYLE1
 73
     1
 44
1.0
  0
MTEXT
  5
206
330
1F
100
AcDbEntity
  8
0
  6
Continuous
 62
     7
370
     0
100
AcDbMText
 10
7.5055121519
 20
827.5136245056
 30
0.0
 40
3.96875
 41
0.0
 71
     2
 72
     1
  1
U
  7
SLDTEXTSTYLE1
 73
     1
 44
1.0
  0
MTEXT
  5
207
330
1F
100
AcDbEntity
  8
0
  6
Continuous
 62
     7
370
     0
100
AcDbMText
 10
4192.5055121519
 20
827.5136245056
 30
0.0
 40
3.96875
 41
0.0
 71
     2
 72
     1
  1
U
  7
SLDTEXTSTYLE1
 73
     1
 44
1.0
  0
MTEXT
  5
208
330
1F
100
AcDbEntity
  8
0
  6
Continuous
 62
     7
370
     0
100
AcDbMText
 10
7.4389069425
 20
877.5136245056
 30
0.0
 40
3.96875
 41
0.0
 71
     2
 72
     1
  1
V
  7
SLDTEXTSTYLE1
 73
     1
 44
1.0
  0
MTEXT
  5
209
330
1F
100
AcDbEntity
  8
0
  6
Continuous
 62
     7
370
     0
100
AcDbMText
 10
4192.4389069425
 20
877.5136245056
 30
0.0
 40
3.96875
 41
0.0
 71
     2
 72
     1
  1
V
  7
SLDTEXTSTYLE1
 73
     1
 44
1.0
  0
MTEXT
  5
20A
330
1F
100
AcDbEntity
  8
0
  6
Continuous
 62
     7
370
     0
100
AcDbMText
 10
7.5032154992
 20
927.5136245056
 30
0.0
 40
3.96875
 41
0.0
 71
     2
 72
     1
  1
W
  7
SLDTEXTSTYLE1
 73
     1
 44
1.0
  0
MTEXT
  5
20B
330
1F
100
AcDbEntity
  8
0
  6
Continuous
 62
     7
370
     0
100
AcDbMText
 10
4192.5032154992
 20
927.5136245056
 30
0.0
 40
3.96875
 41
0.0
 71
     2
 72
     1
  1
W
  7
SLDTEXTSTYLE1
 73
     1
 44
1.0
  0
MTEXT
  5
20C
330
1F
100
AcDbEntity
  8
0
  6
Continuous
 62
     7
370
     0
100
AcDbMText
 10
7.4848415842
 20
977.5136245056
 30
0.0
 40
3.96875
 41
0.0
 71
     2
 72
     1
  1
Y
  7
SLDTEXTSTYLE1
 73
     1
 44
1.0
  0
MTEXT
  5
20D
330
1F
100
AcDbEntity
  8
0
  6
Continuous
 62
     7
370
     0
100
AcDbMText
 10
4192.4848415842
 20
977.5136245056
 30
0.0
 40
3.96875
 41
0.0
 71
     2
 72
     1
  1
Y
  7
SLDTEXTSTYLE1
 73
     1
 44
1.0
  0
MTEXT
  5
20E
330
1F
100
AcDbEntity
  8
0
  6
Continuous
 62
     7
370
     0
100
AcDbMText
 10
7.1793762855
 20
1027.5136245056
 30
0.0
 40
3.96875
 41
0.0
 71
     2
 72
     1
  1
AA
  7
SLDTEXTSTYLE1
 73
     1
 44
1.0
  0
MTEXT
  5
20F
330
1F
100
AcDbEntity
  8
0
  6
Continuous
 62
     7
370
     0
100
AcDbMText
 10
4192.1793762855
 20
1027.5136245056
 30
0.0
 40
3.96875
 41
0.0
 71
     2
 72
     1
  1
AA
  7
SLDTEXTSTYLE1
 73
     1
 44
1.0
  0
MTEXT
  5
210
330
1F
100
AcDbEntity
  8
0
  6
Continuous
 62
     7
370
     0
100
AcDbMText
 10
7.3102900833
 20
1077.5136245056
 30
0.0
 40
3.96875
 41
0.0
 71
     2
 72
     1
  1
AB
  7
SLDTEXTSTYLE1
 73
     1
 44
1.0
  0
MTEXT
  5
211
330
1F
100
AcDbEntity
  8
0
  6
Continuous
 62
     7
370
     0
100
AcDbMText
 10
4192.3102900833
 20
1077.5136245056
 30
0.0
 40
3.96875
 41
0.0
 71
     2
 72
     1
  1
AB
  7
SLDTEXTSTYLE1
 73
     1
 44
1.0
  0
MTEXT
  5
212
330
1F
100
AcDbEntity
  8
0
  6
Continuous
 62
     7
370
     0
100
AcDbMText
 10
7.2983470447
 20
1127.5136245056
 30
0.0
 40
3.96875
 41
0.0
 71
     2
 72
     1
  1
AC
  7
SLDTEXTSTYLE1
 73
     1
 44
1.0
  0
MTEXT
  5
213
330
1F
100
AcDbEntity
  8
0
  6
Continuous
 62
     7
370
     0
100
AcDbMText
 10
4192.2983470447
 20
1127.5136245056
 30
0.0
 40
3.96875
 41
0.0
 71
     2
 72
     1
  1
AC
  7
SLDTEXTSTYLE1
 73
     1
 44
1.0
  0
MTEXT
  5
214
330
1F
100
AcDbEntity
  8
0
  6
Continuous
 62
     7
370
     0
100
AcDbMText
 10
7.292375192
 20
1177.5136245056
 30
0.0
 40
3.96875
 41
0.0
 71
     2
 72
     1
  1
AD
  7
SLDTEXTSTYLE1
 73
     1
 44
1.0
  0
MTEXT
  5
215
330
1F
100
AcDbEntity
  8
0
  6
Continuous
 62
     7
370
     0
100
AcDbMText
 10
4192.292375192
 20
1177.5136245056
 30
0.0
 40
3.96875
 41
0.0
 71
     2
 72
     1
  1
AD
  7
SLDTEXTSTYLE1
 73
     1
 44
1.0
  0
MTEXT
  5
216
330
1F
100
AcDbEntity
  8
0
  6
Continuous
 62
     7
370
     0
100
AcDbMText
 10
7.3474970479
 20
1227.5136245056
 30
0.0
 40
3.96875
 41
0.0
 71
     2
 72
     1
  1
AE
  7
SLDTEXTSTYLE1
 73
     1
 44
1.0
  0
MTEXT
  5
217
330
1F
100
AcDbEntity
  8
0
  6
Continuous
 62
     7
370
     0
100
AcDbMText
 10
4192.3474970479
 20
1227.5136245056
 30
0.0
 40
3.96875
 41
0.0
 71
     2
 72
     1
  1
AE
  7
SLDTEXTSTYLE1
 73
     1
 44
1.0
  0
MTEXT
  5
218
330
1F
100
AcDbEntity
  8
0
  6
Continuous
 62
     7
370
     0
100
AcDbMText
 10
7.2974282354
 20
1277.5136245056
 30
0.0
 40
3.96875
 41
0.0
 71
     2
 72
     1
  1
AF
  7
SLDTEXTSTYLE1
 73
     1
 44
1.0
  0
MTEXT
  5
219
330
1F
100
AcDbEntity
  8
0
  6
Continuous
 62
     7
370
     0
100
AcDbMText
 10
4192.2974282354
 20
1277.5136245056
 30
0.0
 40
3.96875
 41
0.0
 71
     2
 72
     1
  1
AF
  7
SLDTEXTSTYLE1
 73
     1
 44
1.0
  0
MTEXT
  5
21A
330
1F
100
AcDbEntity
  8
0
  6
Continuous
 62
     7
370
     0
100
AcDbMText
 10
7.3263670281
 20
1327.5136245056
 30
0.0
 40
3.96875
 41
0.0
 71
     2
 72
     1
  1
AG
  7
SLDTEXTSTYLE1
 73
     1
 44
1.0
  0
MTEXT
  5
21B
330
1F
100
AcDbEntity
  8
0
  6
Continuous
 62
     7
370
     0
100
AcDbMText
 10
4192.3263670281
 20
1327.5136245056
 30
0.0
 40
3.96875
 41
0.0
 71
     2
 72
     1
  1
AG
  7
SLDTEXTSTYLE1
 73
     1
 44
1.0
  0
MTEXT
  5
21C
330
1F
100
AcDbEntity
  8
0
  6
Continuous
 62
     7
370
     0
100
AcDbMText
 10
7.3300419264
 20
1377.5136245056
 30
0.0
 40
3.96875
 41
0.0
 71
     2
 72
     1
  1
AH
  7
SLDTEXTSTYLE1
 73
     1
 44
1.0
  0
MTEXT
  5
21D
330
1F
100
AcDbEntity
  8
0
  6
Continuous
 62
     7
370
     0
100
AcDbMText
 10
4192.3300419264
 20
1377.5136245056
 30
0.0
 40
3.96875
 41
0.0
 71
     2
 72
     1
  1
AH
  7
SLDTEXTSTYLE1
 73
     1
 44
1.0
  0
MTEXT
  5
21E
330
1F
100
AcDbEntity
  8
0
  6
Continuous
 62
     7
370
     0
100
AcDbMText
 10
7.3047777675
 20
1427.5136245056
 30
0.0
 40
3.96875
 41
0.0
 71
     2
 72
     1
  1
AJ
  7
SLDTEXTSTYLE1
 73
     1
 44
1.0
  0
MTEXT
  5
21F
330
1F
100
AcDbEntity
  8
0
  6
Continuous
 62
     7
370
     0
100
AcDbMText
 10
4192.3047777675
 20
1427.5136245056
 30
0.0
 40
3.96875
 41
0.0
 71
     2
 72
     1
  1
AJ
  7
SLDTEXTSTYLE1
 73
     1
 44
1.0
  0
MTEXT
  5
220
330
1F
100
AcDbEntity
  8
0
  6
Continuous
 62
     7
370
     0
100
AcDbMText
 10
7.3282046095
 20
1477.5136245056
 30
0.0
 40
3.96875
 41
0.0
 71
     2
 72
     1
  1
AK
  7
SLDTEXTSTYLE1
 73
     1
 44
1.0
  0
MTEXT
  5
221
330
1F
100
AcDbEntity
  8
0
  6
Continuous
 62
     7
370
     0
100
AcDbMText
 10
4192.3282046095
 20
1477.5136245056
 30
0.0
 40
3.96875
 41
0.0
 71
     2
 72
     1
  1
AK
  7
SLDTEXTSTYLE1
 73
     1
 44
1.0
  0
MTEXT
  5
222
330
1F
100
AcDbEntity
  8
0
  6
Continuous
 62
     7
370
     0
100
AcDbMText
 10
7.2942127734
 20
1527.5136245056
 30
0.0
 40
3.96875
 41
0.0
 71
     2
 72
     1
  1
AL
  7
SLDTEXTSTYLE1
 73
     1
 44
1.0
  0
MTEXT
  5
223
330
1F
100
AcDbEntity
  8
0
  6
Continuous
 62
     7
370
     0
100
AcDbMText
 10
4192.2942127734
 20
1527.5136245056
 30
0.0
 40
3.96875
 41
0.0
 71
     2
 72
     1
  1
AL
  7
SLDTEXTSTYLE1
 73
     1
 44
1.0
  0
MTEXT
  5
224
330
1F
100
AcDbEntity
  8
0
  6
Continuous
 62
     7
370
     0
100
AcDbMText
 10
7.2014249824
 20
1577.5136245056
 30
0.0
 40
3.96875
 41
0.0
 71
     2
 72
     1
  1
AM
  7
SLDTEXTSTYLE1
 73
     1
 44
1.0
  0
MTEXT
  5
225
330
1F
100
AcDbEntity
  8
0
  6
Continuous
 62
     7
370
     0
100
AcDbMText
 10
4192.2014249824
 20
1577.5136245056
 30
0.0
 40
3.96875
 41
0.0
 71
     2
 72
     1
  1
AM
  7
SLDTEXTSTYLE1
 73
     1
 44
1.0
  0
MTEXT
  5
226
330
1F
100
AcDbEntity
  8
0
  6
Continuous
 62
     7
370
     0
100
AcDbMText
 10
7.303399723
 20
1627.5136245056
 30
0.0
 40
3.96875
 41
0.0
 71
     2
 72
     1
  1
AN
  7
SLDTEXTSTYLE1
 73
     1
 44
1.0
  0
MTEXT
  5
227
330
1F
100
AcDbEntity
  8
0
  6
Continuous
 62
     7
370
     0
100
AcDbMText
 10
4192.303399723
 20
1627.5136245056
 30
0.0
 40
3.96875
 41
0.0
 71
     2
 72
     1
  1
AN
  7
SLDTEXTSTYLE1
 73
     1
 44
1.0
  0
MTEXT
  5
228
330
1F
100
AcDbEntity
  8
0
  6
Continuous
 62
     7
370
     0
100
AcDbMText
 10
7.3245296106
 20
1677.5136245056
 30
0.0
 40
3.96875
 41
0.0
 71
     2
 72
     1
  1
AP
  7
SLDTEXTSTYLE1
 73
     1
 44
1.0
  0
MTEXT
  5
229
330
1F
100
AcDbEntity
  8
0
  6
Continuous
 62
     7
370
     0
100
AcDbMText
 10
4192.3245296106
 20
1677.5136245056
 30
0.0
 40
3.96875
 41
0.0
 71
     2
 72
     1
  1
AP
  7
SLDTEXTSTYLE1
 73
     1
 44
1.0
  0
MTEXT
  5
22A
330
1F
100
AcDbEntity
  8
0
  6
Continuous
 62
     7
370
     0
100
AcDbMText
 10
7.2841074169
 20
1727.5136245056
 30
0.0
 40
3.96875
 41
0.0
 71
     2
 72
     1
  1
AR
  7
SLDTEXTSTYLE1
 73
     1
 44
1.0
  0
MTEXT
  5
22B
330
1F
100
AcDbEntity
  8
0
  6
Continuous
 62
     7
370
     0
100
AcDbMText
 10
4192.2841074169
 20
1727.5136245056
 30
0.0
 40
3.96875
 41
0.0
 71
     2
 72
     1
  1
AR
  7
SLDTEXTSTYLE1
 73
     1
 44
1.0
  0
MTEXT
  5
22C
330
1F
100
AcDbEntity
  8
0
  6
Continuous
 62
     7
370
     0
100
AcDbMText
 10
7.327744972
 20
1777.5136245056
 30
0.0
 40
3.96875
 41
0.0
 71
     2
 72
     1
  1
AT
  7
SLDTEXTSTYLE1
 73
     1
 44
1.0
  0
MTEXT
  5
22D
330
1F
100
AcDbEntity
  8
0
  6
Continuous
 62
     7
370
     0
100
AcDbMText
 10
4192.327744972
 20
1777.5136245056
 30
0.0
 40
3.96875
 41
0.0
 71
     2
 72
     1
  1
AT
  7
SLDTEXTSTYLE1
 73
     1
 44
1.0
  0
MTEXT
  5
22E
330
1F
100
AcDbEntity
  8
0
  6
Continuous
 62
     7
370
     0
100
AcDbMText
 10
7.3452002946
 20
1827.5136245056
 30
0.0
 40
3.96875
 41
0.0
 71
     2
 72
     1
  1
AU
  7
SLDTEXTSTYLE1
 73
     1
 44
1.0
  0
MTEXT
  5
22F
330
1F
100
AcDbEntity
  8
0
  6
Continuous
 62
     7
370
     0
100
AcDbMText
 10
4192.3452002946
 20
1827.5136245056
 30
0.0
 40
3.96875
 41
0.0
 71
     2
 72
     1
  1
AU
  7
SLDTEXTSTYLE1
 73
     1
 44
1.0
  0
MTEXT
  5
230
330
1F
100
AcDbEntity
  8
0
  6
Continuous
 62
     7
370
     0
100
AcDbMText
 10
7.2785952017
 20
1877.5136245056
 30
0.0
 40
3.96875
 41
0.0
 71
     2
 72
     1
  1
AV
  7
SLDTEXTSTYLE1
 73
     1
 44
1.0
  0
MTEXT
  5
231
330
1F
100
AcDbEntity
  8
0
  6
Continuous
 62
     7
370
     0
100
AcDbMText
 10
4192.2785952017
 20
1877.5136245056
 30
0.0
 40
3.96875
 41
0.0
 71
     2
 72
     1
  1
AV
  7
SLDTEXTSTYLE1
 73
     1
 44
1.0
  0
MTEXT
  5
232
330
1F
100
AcDbEntity
  8
0
  6
Continuous
 62
     7
370
     0
100
AcDbMText
 10
7.3429038748
 20
1927.5136245056
 30
0.0
 40
3.96875
 41
0.0
 71
     2
 72
     1
  1
AW
  7
SLDTEXTSTYLE1
 73
     1
 44
1.0
  0
MTEXT
  5
233
330
1F
100
AcDbEntity
  8
0
  6
Continuous
 62
     7
370
     0
100
AcDbMText
 10
4192.3429038748
 20
1927.5136245056
 30
0.0
 40
3.96875
 41
0.0
 71
     2
 72
     1
  1
AW
  7
SLDTEXTSTYLE1
 73
     1
 44
1.0
  0
MTEXT
  5
234
330
1F
100
AcDbEntity
  8
0
  6
Continuous
 62
     7
370
     0
100
AcDbMText
 10
7.3245296106
 20
1977.5136245056
 30
0.0
 40
3.96875
 41
0.0
 71
     2
 72
     1
  1
AY
  7
SLDTEXTSTYLE1
 73
     1
 44
1.0
  0
MTEXT
  5
235
330
1F
100
AcDbEntity
  8
0
  6
Continuous
 62
     7
370
     0
100
AcDbMText
 10
4192.3245296106
 20
1977.5136245056
 30
0.0
 40
3.96875
 41
0.0
 71
     2
 72
     1
  1
AY
  7
SLDTEXTSTYLE1
 73
     1
 44
1.0
  0
MTEXT
  5
236
330
1F
100
AcDbEntity
  8
0
  6
Continuous
 62
     7
370
     0
100
AcDbMText
 10
7.3102900833
 20
2027.5136245056
 30
0.0
 40
3.96875
 41
0.0
 71
     2
 72
     1
  1
BA
  7
SLDTEXTSTYLE1
 73
     1
 44
1.0
  0
MTEXT
  5
237
330
1F
100
AcDbEntity
  8
0
  6
Continuous
 62
     7
370
     0
100
AcDbMText
 10
4192.3102900833
 20
2027.5136245056
 30
0.0
 40
3.96875
 41
0.0
 71
     2
 72
     1
  1
BA
  7
SLDTEXTSTYLE1
 73
     1
 44
1.0
  0
MTEXT
  5
238
330
1F
100
AcDbEntity
  8
0
  6
Continuous
 62
     7
370
     0
100
AcDbMText
 10
7.4412036482
 20
2077.5136245056
 30
0.0
 40
3.96875
 41
0.0
 71
     2
 72
     1
  1
BB
  7
SLDTEXTSTYLE1
 73
     1
 44
1.0
  0
MTEXT
  5
239
330
1F
100
AcDbEntity
  8
0
  6
Continuous
 62
     7
370
     0
100
AcDbMText
 10
4192.4412036482
 20
2077.5136245056
 30
0.0
 40
3.96875
 41
0.0
 71
     2
 72
     1
  1
BB
  7
SLDTEXTSTYLE1
 73
     1
 44
1.0
  0
MTEXT
  5
23A
330
1F
100
AcDbEntity
  8
0
  6
Continuous
 62
     7
370
     0
100
AcDbMText
 10
7.4292608425
 20
2127.5136245056
 30
0.0
 40
3.96875
 41
0.0
 71
     2
 72
     1
  1
BC
  7
SLDTEXTSTYLE1
 73
     1
 44
1.0
  0
MTEXT
  5
23B
330
1F
100
AcDbEntity
  8
0
  6
Continuous
 62
     7
370
     0
100
AcDbMText
 10
4192.4292608425
 20
2127.5136245056
 30
0.0
 40
3.96875
 41
0.0
 71
     2
 72
     1
  1
BC
  7
SLDTEXTSTYLE1
 73
     1
 44
1.0
  0
MTEXT
  5
23C
330
1F
100
AcDbEntity
  8
0
  6
Continuous
 62
     7
370
     0
100
AcDbMText
 10
7.4232889898
 20
2177.5136245056
 30
0.0
 40
3.96875
 41
0.0
 71
     2
 72
     1
  1
BD
  7
SLDTEXTSTYLE1
 73
     1
 44
1.0
  0
MTEXT
  5
23D
330
1F
100
AcDbEntity
  8
0
  6
Continuous
 62
     7
370
     0
100
AcDbMText
 10
4192.4232889898
 20
2177.5136245056
 30
0.0
 40
3.96875
 41
0.0
 71
     2
 72
     1
  1
BD
  7
SLDTEXTSTYLE1
 73
     1
 44
1.0
  0
MTEXT
  5
23E
330
1F
100
AcDbEntity
  8
0
  6
Continuous
 62
     7
370
     0
100
AcDbMText
 10
7.4784106128
 20
2227.5136245056
 30
0.0
 40
3.96875
 41
0.0
 71
     2
 72
     1
  1
BE
  7
SLDTEXTSTYLE1
 73
     1
 44
1.0
  0
MTEXT
  5
23F
330
1F
100
AcDbEntity
  8
0
  6
Continuous
 62
     7
370
     0
100
AcDbMText
 10
4192.4784106128
 20
2227.5136245056
 30
0.0
 40
3.96875
 41
0.0
 71
     2
 72
     1
  1
BE
  7
SLDTEXTSTYLE1
 73
     1
 44
1.0
  0
MTEXT
  5
240
330
1F
100
AcDbEntity
  8
0
  6
Continuous
 62
     7
370
     0
100
AcDbMText
 10
7.4283420332
 20
2277.5136245056
 30
0.0
 40
3.96875
 41
0.0
 71
     2
 72
     1
  1
BF
  7
SLDTEXTSTYLE1
 73
     1
 44
1.0
  0
MTEXT
  5
241
330
1F
100
AcDbEntity
  8
0
  6
Continuous
 62
     7
370
     0
100
AcDbMText
 10
4192.4283420332
 20
2277.5136245056
 30
0.0
 40
3.96875
 41
0.0
 71
     2
 72
     1
  1
BF
  7
SLDTEXTSTYLE1
 73
     1
 44
1.0
  0
MTEXT
  5
242
330
1F
100
AcDbEntity
  8
0
  6
Continuous
 62
     7
370
     0
100
AcDbMText
 10
7.4572808258
 20
2327.5136245056
 30
0.0
 40
3.96875
 41
0.0
 71
     2
 72
     1
  1
BG
  7
SLDTEXTSTYLE1
 73
     1
 44
1.0
  0
MTEXT
  5
243
330
1F
100
AcDbEntity
  8
0
  6
Continuous
 62
     7
370
     0
100
AcDbMText
 10
4192.4572808258
 20
2327.5136245056
 30
0.0
 40
3.96875
 41
0.0
 71
     2
 72
     1
  1
BG
  7
SLDTEXTSTYLE1
 73
     1
 44
1.0
  0
MTEXT
  5
244
330
1F
100
AcDbEntity
  8
0
  6
Continuous
 62
     7
370
     0
100
AcDbMText
 10
7.4609557241
 20
2377.5136245056
 30
0.0
 40
3.96875
 41
0.0
 71
     2
 72
     1
  1
BH
  7
SLDTEXTSTYLE1
 73
     1
 44
1.0
  0
MTEXT
  5
245
330
1F
100
AcDbEntity
  8
0
  6
Continuous
 62
     7
370
     0
100
AcDbMText
 10
4192.4609557241
 20
2377.5136245056
 30
0.0
 40
3.96875
 41
0.0
 71
     2
 72
     1
  1
BH
  7
SLDTEXTSTYLE1
 73
     1
 44
1.0
  0
MTEXT
  5
246
330
1F
100
AcDbEntity
  8
0
  6
Continuous
 62
     7
370
     0
100
AcDbMText
 10
7.4356915653
 20
2427.5136245056
 30
0.0
 40
3.96875
 41
0.0
 71
     2
 72
     1
  1
BJ
  7
SLDTEXTSTYLE1
 73
     1
 44
1.0
  0
MTEXT
  5
247
330
1F
100
AcDbEntity
  8
0
  6
Continuous
 62
     7
370
     0
100
AcDbMText
 10
4192.4356915653
 20
2427.5136245056
 30
0.0
 40
3.96875
 41
0.0
 71
     2
 72
     1
  1
BJ
  7
SLDTEXTSTYLE1
 73
     1
 44
1.0
  0
MTEXT
  5
248
330
1F
100
AcDbEntity
  8
0
  6
Continuous
 62
     7
370
     0
100
AcDbMText
 10
7.4591181744
 20
2477.5136245056
 30
0.0
 40
3.96875
 41
0.0
 71
     2
 72
     1
  1
BK
  7
SLDTEXTSTYLE1
 73
     1
 44
1.0
  0
MTEXT
  5
249
330
1F
100
AcDbEntity
  8
0
  6
Continuous
 62
     7
370
     0
100
AcDbMText
 10
4192.4591181744
 20
2477.5136245056
 30
0.0
 40
3.96875
 41
0.0
 71
     2
 72
     1
  1
BK
  7
SLDTEXTSTYLE1
 73
     1
 44
1.0
  0
MTEXT
  5
24A
330
1F
100
AcDbEntity
  8
0
  6
Continuous
 62
     7
370
     0
100
AcDbMText
 10
7.4251265712
 20
2527.5136245056
 30
0.0
 40
3.96875
 41
0.0
 71
     2
 72
     1
  1
BL
  7
SLDTEXTSTYLE1
 73
     1
 44
1.0
  0
MTEXT
  5
24B
330
1F
100
AcDbEntity
  8
0
  6
Continuous
 62
     7
370
     0
100
AcDbMText
 10
4192.4251265712
 20
2527.5136245056
 30
0.0
 40
3.96875
 41
0.0
 71
     2
 72
     1
  1
BL
  7
SLDTEXTSTYLE1
 73
     1
 44
1.0
  0
MTEXT
  5
24C
330
1F
100
AcDbEntity
  8
0
  6
Continuous
 62
     7
370
     0
100
AcDbMText
 10
7.3323387802
 20
2577.5136245056
 30
0.0
 40
3.96875
 41
0.0
 71
     2
 72
     1
  1
BM
  7
SLDTEXTSTYLE1
 73
     1
 44
1.0
  0
MTEXT
  5
24D
330
1F
100
AcDbEntity
  8
0
  6
Continuous
 62
     7
370
     0
100
AcDbMText
 10
4192.3323387802
 20
2577.5136245056
 30
0.0
 40
3.96875
 41
0.0
 71
     2
 72
     1
  1
BM
  7
SLDTEXTSTYLE1
 73
     1
 44
1.0
  0
MTEXT
  5
24E
330
1F
100
AcDbEntity
  8
0
  6
Continuous
 62
     7
370
     0
100
AcDbMText
 10
7.4343135208
 20
2627.5136245056
 30
0.0
 40
3.96875
 41
0.0
 71
     2
 72
     1
  1
BN
  7
SLDTEXTSTYLE1
 73
     1
 44
1.0
  0
MTEXT
  5
24F
330
1F
100
AcDbEntity
  8
0
  6
Continuous
 62
     7
370
     0
100
AcDbMText
 10
4192.4343135208
 20
2627.5136245056
 30
0.0
 40
3.96875
 41
0.0
 71
     2
 72
     1
  1
BN
  7
SLDTEXTSTYLE1
 73
     1
 44
1.0
  0
MTEXT
  5
250
330
1F
100
AcDbEntity
  8
0
  6
Continuous
 62
     7
370
     0
100
AcDbMText
 10
7.4554434083
 20
2677.5136245056
 30
0.0
 40
3.96875
 41
0.0
 71
     2
 72
     1
  1
BP
  7
SLDTEXTSTYLE1
 73
     1
 44
1.0
  0
MTEXT
  5
251
330
1F
100
AcDbEntity
  8
0
  6
Continuous
 62
     7
370
     0
100
AcDbMText
 10
4192.4554434083
 20
2677.5136245056
 30
0.0
 40
3.96875
 41
0.0
 71
     2
 72
     1
  1
BP
  7
SLDTEXTSTYLE1
 73
     1
 44
1.0
  0
MTEXT
  5
252
330
1F
100
AcDbEntity
  8
0
  6
Continuous
 62
     7
370
     0
100
AcDbMText
 10
7.4150209818
 20
2727.5136245056
 30
0.0
 40
3.96875
 41
0.0
 71
     2
 72
     1
  1
BR
  7
SLDTEXTSTYLE1
 73
     1
 44
1.0
  0
MTEXT
  5
253
330
1F
100
AcDbEntity
  8
0
  6
Continuous
 62
     7
370
     0
100
AcDbMText
 10
4192.4150209818
 20
2727.5136245056
 30
0.0
 40
3.96875
 41
0.0
 71
     2
 72
     1
  1
BR
  7
SLDTEXTSTYLE1
 73
     1
 44
1.0
  0
MTEXT
  5
254
330
1F
100
AcDbEntity
  8
0
  6
Continuous
 62
     7
370
     0
100
AcDbMText
 10
7.4586587697
 20
2777.5136245056
 30
0.0
 40
3.96875
 41
0.0
 71
     2
 72
     1
  1
BT
  7
SLDTEXTSTYLE1
 73
     1
 44
1.0
  0
MTEXT
  5
255
330
1F
100
AcDbEntity
  8
0
  6
Continuous
 62
     7
370
     0
100
AcDbMText
 10
4192.4586587697
 20
2777.5136245056
 30
0.0
 40
3.96875
 41
0.0
 71
     2
 72
     1
  1
BT
  7
SLDTEXTSTYLE1
 73
     1
 44
1.0
  0
MTEXT
  5
256
330
1F
100
AcDbEntity
  8
0
  6
Continuous
 62
     7
370
     0
100
AcDbMText
 10
7.4761138596
 20
2827.5136245056
 30
0.0
 40
3.96875
 41
0.0
 71
     2
 72
     1
  1
BU
  7
SLDTEXTSTYLE1
 73
     1
 44
1.0
  0
MTEXT
  5
257
330
1F
100
AcDbEntity
  8
0
  6
Continuous
 62
     7
370
     0
100
AcDbMText
 10
4192.4761138596
 20
2827.5136245056
 30
0.0
 40
3.96875
 41
0.0
 71
     2
 72
     1
  1
BU
  7
SLDTEXTSTYLE1
 73
     1
 44
1.0
  0
MTEXT
  5
258
330
1F
100
AcDbEntity
  8
0
  6
Continuous
 62
     7
370
     0
100
AcDbMText
 10
7.4095087666
 20
2877.5136245056
 30
0.0
 40
3.96875
 41
0.0
 71
     2
 72
     1
  1
BV
  7
SLDTEXTSTYLE1
 73
     1
 44
1.0
  0
MTEXT
  5
259
330
1F
100
AcDbEntity
  8
0
  6
Continuous
 62
     7
370
     0
100
AcDbMText
 10
4192.4095087666
 20
2877.5136245056
 30
0.0
 40
3.96875
 41
0.0
 71
     2
 72
     1
  1
BV
  7
SLDTEXTSTYLE1
 73
     1
 44
1.0
  0
MTEXT
  5
25A
330
1F
100
AcDbEntity
  8
0
  6
Continuous
 62
     7
370
     0
100
AcDbMText
 10
7.4738172069
 20
2927.5136245056
 30
0.0
 40
3.96875
 41
0.0
 71
     2
 72
     1
  1
BW
  7
SLDTEXTSTYLE1
 73
     1
 44
1.0
  0
MTEXT
  5
25B
330
1F
100
AcDbEntity
  8
0
  6
Continuous
 62
     7
370
     0
100
AcDbMText
 10
4192.4738172069
 20
2927.5136245056
 30
0.0
 40
3.96875
 41
0.0
 71
     2
 72
     1
  1
BW
  7
SLDTEXTSTYLE1
 73
     1
 44
1.0
  0
MTEXT
  5
25C
330
1F
100
AcDbEntity
  8
0
  6
Continuous
 62
     7
370
     0
100
AcDbMText
 10
7.4554434083
 20
2977.5136245056
 30
0.0
 40
3.96875
 41
0.0
 71
     2
 72
     1
  1
BY
  7
SLDTEXTSTYLE1
 73
     1
 44
1.0
  0
MTEXT
  5
25D
330
1F
100
AcDbEntity
  8
0
  6
Continuous
 62
     7
370
     0
100
AcDbMText
 10
4192.4554434083
 20
2977.5136245056
 30
0.0
 40
3.96875
 41
0.0
 71
     2
 72
     1
  1
BY
  7
SLDTEXTSTYLE1
 73
     1
 44
1.0
  0
MTEXT
  5
25E
330
1F
100
AcDbEntity
  8
0
  6
Continuous
 62
     7
370
     0
100
AcDbMText
 10
7.2983470447
 20
3027.5136245056
 30
0.0
 40
3.96875
 41
0.0
 71
     2
 72
     1
  1
CA
  7
SLDTEXTSTYLE1
 73
     1
 44
1.0
  0
MTEXT
  5
25F
330
1F
100
AcDbEntity
  8
0
  6
Continuous
 62
     7
370
     0
100
AcDbMText
 10
4192.2983470447
 20
3027.5136245056
 30
0.0
 40
3.96875
 41
0.0
 71
     2
 72
     1
  1
CA
  7
SLDTEXTSTYLE1
 73
     1
 44
1.0
  0
MTEXT
  5
260
330
1F
100
AcDbEntity
  8
0
  6
Continuous
 62
     7
370
     0
100
AcDbMText
 10
7.4292608425
 20
3077.5136245056
 30
0.0
 40
3.96875
 41
0.0
 71
     2
 72
     1
  1
CB
  7
SLDTEXTSTYLE1
 73
     1
 44
1.0
  0
MTEXT
  5
261
330
1F
100
AcDbEntity
  8
0
  6
Continuous
 62
     7
370
     0
100
AcDbMText
 10
4192.4292608425
 20
3077.5136245056
 30
0.0
 40
3.96875
 41
0.0
 71
     2
 72
     1
  1
CB
  7
SLDTEXTSTYLE1
 73
     1
 44
1.0
  0
MTEXT
  5
262
330
1F
100
AcDbEntity
  8
0
  6
Continuous
 62
     7
370
     0
100
AcDbMText
 10
7.4173178039
 20
3127.5136245056
 30
0.0
 40
3.96875
 41
0.0
 71
     2
 72
     1
  1
CC
  7
SLDTEXTSTYLE1
 73
     1
 44
1.0
  0
MTEXT
  5
263
330
1F
100
AcDbEntity
  8
0
  6
Continuous
 62
     7
370
     0
100
AcDbMText
 10
4192.417317804
 20
3127.5136245056
 30
0.0
 40
3.96875
 41
0.0
 71
     2
 72
     1
  1
CC
  7
SLDTEXTSTYLE1
 73
     1
 44
1.0
  0
MTEXT
  5
264
330
1F
100
AcDbEntity
  8
0
  6
Continuous
 62
     7
370
     0
100
AcDbMText
 10
7.4113459513
 20
3177.5136245056
 30
0.0
 40
3.96875
 41
0.0
 71
     2
 72
     1
  1
CD
  7
SLDTEXTSTYLE1
 73
     1
 44
1.0
  0
MTEXT
  5
265
330
1F
100
AcDbEntity
  8
0
  6
Continuous
 62
     7
370
     0
100
AcDbMText
 10
4192.4113459513
 20
3177.5136245056
 30
0.0
 40
3.96875
 41
0.0
 71
     2
 72
     1
  1
CD
  7
SLDTEXTSTYLE1
 73
     1
 44
1.0
  0
MTEXT
  5
266
330
1F
100
AcDbEntity
  8
0
  6
Continuous
 62
     7
370
     0
100
AcDbMText
 10
7.4664678071
 20
3227.5136245056
 30
0.0
 40
3.96875
 41
0.0
 71
     2
 72
     1
  1
CE
  7
SLDTEXTSTYLE1
 73
     1
 44
1.0
  0
MTEXT
  5
267
330
1F
100
AcDbEntity
  8
0
  6
Continuous
 62
     7
370
     0
100
AcDbMText
 10
4192.4664678071
 20
3227.5136245056
 30
0.0
 40
3.96875
 41
0.0
 71
     2
 72
     1
  1
CE
  7
SLDTEXTSTYLE1
 73
     1
 44
1.0
  0
MTEXT
  5
268
330
1F
100
AcDbEntity
  8
0
  6
Continuous
 62
     7
370
     0
100
AcDbMText
 10
7.4163989946
 20
3277.5136245056
 30
0.0
 40
3.96875
 41
0.0
 71
     2
 72
     1
  1
CF
  7
SLDTEXTSTYLE1
 73
     1
 44
1.0
  0
MTEXT
  5
269
330
1F
100
AcDbEntity
  8
0
  6
Continuous
 62
     7
370
     0
100
AcDbMText
 10
4192.4163989946
 20
3277.5136245056
 30
0.0
 40
3.96875
 41
0.0
 71
     2
 72
     1
  1
CF
  7
SLDTEXTSTYLE1
 73
     1
 44
1.0
  0
MTEXT
  5
26A
330
1F
100
AcDbEntity
  8
0
  6
Continuous
 62
     7
370
     0
100
AcDbMText
 10
7.4453377873
 20
3327.5136245056
 30
0.0
 40
3.96875
 41
0.0
 71
     2
 72
     1
  1
CG
  7
SLDTEXTSTYLE1
 73
     1
 44
1.0
  0
MTEXT
  5
26B
330
1F
100
AcDbEntity
  8
0
  6
Continuous
 62
     7
370
     0
100
AcDbMText
 10
4192.4453377873
 20
3327.5136245056
 30
0.0
 40
3.96875
 41
0.0
 71
     2
 72
     1
  1
CG
  7
SLDTEXTSTYLE1
 73
     1
 44
1.0
  0
MTEXT
  5
26C
330
1F
100
AcDbEntity
  8
0
  6
Continuous
 62
     7
370
     0
100
AcDbMText
 10
7.4490126856
 20
3377.5136245056
 30
0.0
 40
3.96875
 41
0.0
 71
     2
 72
     1
  1
CH
  7
SLDTEXTSTYLE1
 73
     1
 44
1.0
  0
MTEXT
  5
26D
330
1F
100
AcDbEntity
  8
0
  6
Continuous
 62
     7
370
     0
100
AcDbMText
 10
4192.4490126856
 20
3377.5136245056
 30
0.0
 40
3.96875
 41
0.0
 71
     2
 72
     1
  1
CH
  7
SLDTEXTSTYLE1
 73
     1
 44
1.0
  0
MTEXT
  5
26E
330
1F
100
AcDbEntity
  8
0
  6
Continuous
 62
     7
370
     0
100
AcDbMText
 10
7.4237485267
 20
3427.5136245056
 30
0.0
 40
3.96875
 41
0.0
 71
     2
 72
     1
  1
CJ
  7
SLDTEXTSTYLE1
 73
     1
 44
1.0
  0
MTEXT
  5
26F
330
1F
100
AcDbEntity
  8
0
  6
Continuous
 62
     7
370
     0
100
AcDbMText
 10
4192.4237485267
 20
3427.5136245056
 30
0.0
 40
3.96875
 41
0.0
 71
     2
 72
     1
  1
CJ
  7
SLDTEXTSTYLE1
 73
     1
 44
1.0
  0
MTEXT
  5
270
330
1F
100
AcDbEntity
  8
0
  6
Continuous
 62
     7
370
     0
100
AcDbMText
 10
7.4471753687
 20
3477.5136245056
 30
0.0
 40
3.96875
 41
0.0
 71
     2
 72
     1
  1
CK
  7
SLDTEXTSTYLE1
 73
     1
 44
1.0
  0
MTEXT
  5
271
330
1F
100
AcDbEntity
  8
0
  6
Continuous
 62
     7
370
     0
100
AcDbMText
 10
4192.4471753687
 20
3477.5136245056
 30
0.0
 40
3.96875
 41
0.0
 71
     2
 72
     1
  1
CK
  7
SLDTEXTSTYLE1
 73
     1
 44
1.0
  0
MTEXT
  5
272
330
1F
100
AcDbEntity
  8
0
  6
Continuous
 62
     7
370
     0
100
AcDbMText
 10
7.4131835327
 20
3527.5136245056
 30
0.0
 40
3.96875
 41
0.0
 71
     2
 72
     1
  1
CL
  7
SLDTEXTSTYLE1
 73
     1
 44
1.0
  0
MTEXT
  5
273
330
1F
100
AcDbEntity
  8
0
  6
Continuous
 62
     7
370
     0
100
AcDbMText
 10
4192.4131835327
 20
3527.5136245056
 30
0.0
 40
3.96875
 41
0.0
 71
     2
 72
     1
  1
CL
  7
SLDTEXTSTYLE1
 73
     1
 44
1.0
  0
MTEXT
  5
274
330
1F
100
AcDbEntity
  8
0
  6
Continuous
 62
     7
370
     0
100
AcDbMText
 10
7.3203957416
 20
3577.5136245056
 30
0.0
 40
3.96875
 41
0.0
 71
     2
 72
     1
  1
CM
  7
SLDTEXTSTYLE1
 73
     1
 44
1.0
  0
MTEXT
  5
275
330
1F
100
AcDbEntity
  8
0
  6
Continuous
 62
     7
370
     0
100
AcDbMText
 10
4192.3203957416
 20
3577.5136245056
 30
0.0
 40
3.96875
 41
0.0
 71
     2
 72
     1
  1
CM
  7
SLDTEXTSTYLE1
 73
     1
 44
1.0
  0
MTEXT
  5
276
330
1F
100
AcDbEntity
  8
0
  6
Continuous
 62
     7
370
     0
100
AcDbMText
 10
7.4223704822
 20
3627.5136245056
 30
0.0
 40
3.96875
 41
0.0
 71
     2
 72
     1
  1
CN
  7
SLDTEXTSTYLE1
 73
     1
 44
1.0
  0
MTEXT
  5
277
330
1F
100
AcDbEntity
  8
0
  6
Continuous
 62
     7
370
     0
100
AcDbMText
 10
4192.4223704822
 20
3627.5136245056
 30
0.0
 40
3.96875
 41
0.0
 71
     2
 72
     1
  1
CN
  7
SLDTEXTSTYLE1
 73
     1
 44
1.0
  0
MTEXT
  5
278
330
1F
100
AcDbEntity
  8
0
  6
Continuous
 62
     7
370
     0
100
AcDbMText
 10
7.4435003698
 20
3677.5136245056
 30
0.0
 40
3.96875
 41
0.0
 71
     2
 72
     1
  1
CP
  7
SLDTEXTSTYLE1
 73
     1
 44
1.0
  0
MTEXT
  5
279
330
1F
100
AcDbEntity
  8
0
  6
Continuous
 62
     7
370
     0
100
AcDbMText
 10
4192.4435003698
 20
3677.5136245056
 30
0.0
 40
3.96875
 41
0.0
 71
     2
 72
     1
  1
CP
  7
SLDTEXTSTYLE1
 73
     1
 44
1.0
  0
MTEXT
  5
27A
330
1F
100
AcDbEntity
  8
0
  6
Continuous
 62
     7
370
     0
100
AcDbMText
 10
7.4030781761
 20
3727.5136245056
 30
0.0
 40
3.96875
 41
0.0
 71
     2
 72
     1
  1
CR
  7
SLDTEXTSTYLE1
 73
     1
 44
1.0
  0
MTEXT
  5
27B
330
1F
100
AcDbEntity
  8
0
  6
Continuous
 62
     7
370
     0
100
AcDbMText
 10
4192.4030781761
 20
3727.5136245056
 30
0.0
 40
3.96875
 41
0.0
 71
     2
 72
     1
  1
CR
  7
SLDTEXTSTYLE1
 73
     1
 44
1.0
  0
MTEXT
  5
27C
330
1F
100
AcDbEntity
  8
0
  6
Continuous
 62
     7
370
     0
100
AcDbMText
 10
7.4467157312
 20
3777.5136245056
 30
0.0
 40
3.96875
 41
0.0
 71
     2
 72
     1
  1
CT
  7
SLDTEXTSTYLE1
 73
     1
 44
1.0
  0
MTEXT
  5
27D
330
1F
100
AcDbEntity
  8
0
  6
Continuous
 62
     7
370
     0
100
AcDbMText
 10
4192.4467157312
 20
3777.5136245056
 30
0.0
 40
3.96875
 41
0.0
 71
     2
 72
     1
  1
CT
  7
SLDTEXTSTYLE1
 73
     1
 44
1.0
  0
MTEXT
  5
27E
330
1F
100
AcDbEntity
  8
0
  6
Continuous
 62
     7
370
     0
100
AcDbMText
 10
7.4641710538
 20
3827.5136245056
 30
0.0
 40
3.96875
 41
0.0
 71
     2
 72
     1
  1
CU
  7
SLDTEXTSTYLE1
 73
     1
 44
1.0
  0
MTEXT
  5
27F
330
1F
100
AcDbEntity
  8
0
  6
Continuous
 62
     7
370
     0
100
AcDbMText
 10
4192.4641710538
 20
3827.5136245056
 30
0.0
 40
3.96875
 41
0.0
 71
     2
 72
     1
  1
CU
  7
SLDTEXTSTYLE1
 73
     1
 44
1.0
  0
MTEXT
  5
280
330
1F
100
AcDbEntity
  8
0
  6
Continuous
 62
     7
370
     0
100
AcDbMText
 10
7.3975659609
 20
3877.5136245056
 30
0.0
 40
3.96875
 41
0.0
 71
     2
 72
     1
  1
CV
  7
SLDTEXTSTYLE1
 73
     1
 44
1.0
  0
MTEXT
  5
281
330
1F
100
AcDbEntity
  8
0
  6
Continuous
 62
     7
370
     0
100
AcDbMText
 10
4192.3975659609
 20
3877.5136245056
 30
0.0
 40
3.96875
 41
0.0
 71
     2
 72
     1
  1
CV
  7
SLDTEXTSTYLE1
 73
     1
 44
1.0
  0
MTEXT
  5
282
330
1F
100
AcDbEntity
  8
0
  6
Continuous
 62
     7
370
     0
100
AcDbMText
 10
7.461874634
 20
3927.5136245056
 30
0.0
 40
3.96875
 41
0.0
 71
     2
 72
     1
  1
CW
  7
SLDTEXTSTYLE1
 73
     1
 44
1.0
  0
MTEXT
  5
283
330
1F
100
AcDbEntity
  8
0
  6
Continuous
 62
     7
370
     0
100
AcDbMText
 10
4192.461874634
 20
3927.5136245056
 30
0.0
 40
3.96875
 41
0.0
 71
     2
 72
     1
  1
CW
  7
SLDTEXTSTYLE1
 73
     1
 44
1.0
  0
MTEXT
  5
284
330
1F
100
AcDbEntity
  8
0
  6
Continuous
 62
     7
370
     0
100
AcDbMText
 10
7.4435003698
 20
3977.5136245056
 30
0.0
 40
3.96875
 41
0.0
 71
     2
 72
     1
  1
CY
  7
SLDTEXTSTYLE1
 73
     1
 44
1.0
  0
MTEXT
  5
285
330
1F
100
AcDbEntity
  8
0
  6
Continuous
 62
     7
370
     0
100
AcDbMText
 10
4192.4435003698
 20
3977.5136245056
 30
0.0
 40
3.96875
 41
0.0
 71
     2
 72
     1
  1
CY
  7
SLDTEXTSTYLE1
 73
     1
 44
1.0
  0
MTEXT
  5
286
330
1F
100
AcDbEntity
  8
0
  6
Continuous
 62
     7
370
     0
100
AcDbMText
 10
7.292375192
 20
4027.5136245056
 30
0.0
 40
3.96875
 41
0.0
 71
     2
 72
     1
  1
DA
  7
SLDTEXTSTYLE1
 73
     1
 44
1.0
  0
MTEXT
  5
287
330
1F
100
AcDbEntity
  8
0
  6
Continuous
 62
     7
370
     0
100
AcDbMText
 10
4192.292375192
 20
4027.5136245056
 30
0.0
 40
3.96875
 41
0.0
 71
     2
 72
     1
  1
DA
  7
SLDTEXTSTYLE1
 73
     1
 44
1.0
  0
MTEXT
  5
288
330
1F
100
AcDbEntity
  8
0
  6
Continuous
 62
     7
370
     0
100
AcDbMText
 10
7.4232889898
 20
4077.5136245056
 30
0.0
 40
3.96875
 41
0.0
 71
     2
 72
     1
  1
DB
  7
SLDTEXTSTYLE1
 73
     1
 44
1.0
  0
MTEXT
  5
289
330
1F
100
AcDbEntity
  8
0
  6
Continuous
 62
     7
370
     0
100
AcDbMText
 10
4192.4232889898
 20
4077.5136245056
 30
0.0
 40
3.96875
 41
0.0
 71
     2
 72
     1
  1
DB
  7
SLDTEXTSTYLE1
 73
     1
 44
1.0
  0
MTEXT
  5
28A
330
1F
100
AcDbEntity
  8
0
  6
Continuous
 62
     7
370
     0
100
AcDbMText
 10
7.4113459513
 20
4127.5136245056
 30
0.0
 40
3.96875
 41
0.0
 71
     2
 72
     1
  1
DC
  7
SLDTEXTSTYLE1
 73
     1
 44
1.0
  0
MTEXT
  5
28B
330
1F
100
AcDbEntity
  8
0
  6
Continuous
 62
     7
370
     0
100
AcDbMText
 10
4192.4113459513
 20
4127.5136245056
 30
0.0
 40
3.96875
 41
0.0
 71
     2
 72
     1
  1
DC
  7
SLDTEXTSTYLE1
 73
     1
 44
1.0
  0
MTEXT
  5
28C
330
1F
100
AcDbEntity
  8
0
  6
Continuous
 62
     7
370
     0
100
AcDbMText
 10
7.4053745642
 20
4172.5136245056
 30
0.0
 40
3.96875
 41
0.0
 71
     2
 72
     1
  1
DD
  7
SLDTEXTSTYLE1
 73
     1
 44
1.0
  0
MTEXT
  5
28D
330
1F
100
AcDbEntity
  8
0
  6
Continuous
 62
     7
370
     0
100
AcDbMText
 10
4192.4053745642
 20
4172.5136245056
 30
0.0
 40
3.96875
 41
0.0
 71
     2
 72
     1
  1
DD
  7
SLDTEXTSTYLE1
 73
     1
 44
1.0
  0
MTEXT
  5
28E
330
1F
100
AcDbEntity
  8
0
  6
Continuous
 62
     7
370
     0
100
AcDbMText
 10
29.9200738929
 20
10.0136245056
 30
0.0
 40
3.96875
 41
0.0
 71
     2
 72
     1
  1
84
  7
SLDTEXTSTYLE1
 73
     1
 44
1.0
  0
MTEXT
  5
28F
330
1F
100
AcDbEntity
  8
0
  6
Continuous
 62
     7
370
     0
100
AcDbMText
 10
29.9200738929
 20
4195.0136245056
 30
0.0
 40
3.96875
 41
0.0
 71
     2
 72
     1
  1
84
  7
SLDTEXTSTYLE1
 73
     1
 44
1.0
  0
MTEXT
  5
290
330
1F
100
AcDbEntity
  8
0
  6
Continuous
 62
     7
370
     0
100
AcDbMText
 10
74.9200738929
 20
10.0136245056
 30
0.0
 40
3.96875
 41
0.0
 71
     2
 72
     1
  1
83
  7
SLDTEXTSTYLE1
 73
     1
 44
1.0
  0
MTEXT
  5
291
330
1F
100
AcDbEntity
  8
0
  6
Continuous
 62
     7
370
     0
100
AcDbMText
 10
74.9200738929
 20
4195.0136245056
 30
0.0
 40
3.96875
 41
0.0
 71
     2
 72
     1
  1
83
  7
SLDTEXTSTYLE1
 73
     1
 44
1.0
  0
MTEXT
  5
292
330
1F
100
AcDbEntity
  8
0
  6
Continuous
 62
     7
370
     0
100
AcDbMText
 10
124.9200738929
 20
10.0136245056
 30
0.0
 40
3.96875
 41
0.0
 71
     2
 72
     1
  1
82
  7
SLDTEXTSTYLE1
 73
     1
 44
1.0
  0
MTEXT
  5
293
330
1F
100
AcDbEntity
  8
0
  6
Continuous
 62
     7
370
     0
100
AcDbMText
 10
124.9200738929
 20
4195.0136245056
 30
0.0
 40
3.96875
 41
0.0
 71
     2
 72
     1
  1
82
  7
SLDTEXTSTYLE1
 73
     1
 44
1.0
  0
MTEXT
  5
294
330
1F
100
AcDbEntity
  8
0
  6
Continuous
 62
     7
370
     0
100
AcDbMText
 10
174.9200738929
 20
10.0136245056
 30
0.0
 40
3.96875
 41
0.0
 71
     2
 72
     1
  1
81
  7
SLDTEXTSTYLE1
 73
     1
 44
1.0
  0
MTEXT
  5
295
330
1F
100
AcDbEntity
  8
0
  6
Continuous
 62
     7
370
     0
100
AcDbMText
 10
174.9200738929
 20
4195.0136245056
 30
0.0
 40
3.96875
 41
0.0
 71
     2
 72
     1
  1
81
  7
SLDTEXTSTYLE1
 73
     1
 44
1.0
  0
MTEXT
  5
296
330
1F
100
AcDbEntity
  8
0
  6
Continuous
 62
     7
370
     0
100
AcDbMText
 10
224.9200738929
 20
10.0136245056
 30
0.0
 40
3.96875
 41
0.0
 71
     2
 72
     1
  1
80
  7
SLDTEXTSTYLE1
 73
     1
 44
1.0
  0
MTEXT
  5
297
330
1F
100
AcDbEntity
  8
0
  6
Continuous
 62
     7
370
     0
100
AcDbMText
 10
224.9200738929
 20
4195.0136245056
 30
0.0
 40
3.96875
 41
0.0
 71
     2
 72
     1
  1
80
  7
SLDTEXTSTYLE1
 73
     1
 44
1.0
  0
MTEXT
  5
298
330
1F
100
AcDbEntity
  8
0
  6
Continuous
 62
     7
370
     0
100
AcDbMText
 10
274.9200738929
 20
10.0136245056
 30
0.0
 40
3.96875
 41
0.0
 71
     2
 72
     1
  1
79
  7
SLDTEXTSTYLE1
 73
     1
 44
1.0
  0
MTEXT
  5
299
330
1F
100
AcDbEntity
  8
0
  6
Continuous
 62
     7
370
     0
100
AcDbMText
 10
274.9200738929
 20
4195.0136245056
 30
0.0
 40
3.96875
 41
0.0
 71
     2
 72
     1
  1
79
  7
SLDTEXTSTYLE1
 73
     1
 44
1.0
  0
MTEXT
  5
29A
330
1F
100
AcDbEntity
  8
0
  6
Continuous
 62
     7
370
     0
100
AcDbMText
 10
324.9200738929
 20
10.0136245056
 30
0.0
 40
3.96875
 41
0.0
 71
     2
 72
     1
  1
78
  7
SLDTEXTSTYLE1
 73
     1
 44
1.0
  0
MTEXT
  5
29B
330
1F
100
AcDbEntity
  8
0
  6
Continuous
 62
     7
370
     0
100
AcDbMText
 10
324.9200738929
 20
4195.0136245056
 30
0.0
 40
3.96875
 41
0.0
 71
     2
 72
     1
  1
78
  7
SLDTEXTSTYLE1
 73
     1
 44
1.0
  0
MTEXT
  5
29C
330
1F
100
AcDbEntity
  8
0
  6
Continuous
 62
     7
370
     0
100
AcDbMText
 10
374.9200738929
 20
10.0136245056
 30
0.0
 40
3.96875
 41
0.0
 71
     2
 72
     1
  1
77
  7
SLDTEXTSTYLE1
 73
     1
 44
1.0
  0
MTEXT
  5
29D
330
1F
100
AcDbEntity
  8
0
  6
Continuous
 62
     7
370
     0
100
AcDbMText
 10
374.9200738929
 20
4195.0136245056
 30
0.0
 40
3.96875
 41
0.0
 71
     2
 72
     1
  1
77
  7
SLDTEXTSTYLE1
 73
     1
 44
1.0
  0
MTEXT
  5
29E
330
1F
100
AcDbEntity
  8
0
  6
Continuous
 62
     7
370
     0
100
AcDbMText
 10
424.9200738929
 20
10.0136245056
 30
0.0
 40
3.96875
 41
0.0
 71
     2
 72
     1
  1
76
  7
SLDTEXTSTYLE1
 73
     1
 44
1.0
  0
MTEXT
  5
29F
330
1F
100
AcDbEntity
  8
0
  6
Continuous
 62
     7
370
     0
100
AcDbMText
 10
424.9200738929
 20
4195.0136245056
 30
0.0
 40
3.96875
 41
0.0
 71
     2
 72
     1
  1
76
  7
SLDTEXTSTYLE1
 73
     1
 44
1.0
  0
MTEXT
  5
2A0
330
1F
100
AcDbEntity
  8
0
  6
Continuous
 62
     7
370
     0
100
AcDbMText
 10
474.9200738929
 20
10.0136245056
 30
0.0
 40
3.96875
 41
0.0
 71
     2
 72
     1
  1
75
  7
SLDTEXTSTYLE1
 73
     1
 44
1.0
  0
MTEXT
  5
2A1
330
1F
100
AcDbEntity
  8
0
  6
Continuous
 62
     7
370
     0
100
AcDbMText
 10
474.9200738929
 20
4195.0136245056
 30
0.0
 40
3.96875
 41
0.0
 71
     2
 72
     1
  1
75
  7
SLDTEXTSTYLE1
 73
     1
 44
1.0
  0
MTEXT
  5
2A2
330
1F
100
AcDbEntity
  8
0
  6
Continuous
 62
     7
370
     0
100
AcDbMText
 10
524.9200738929
 20
10.0136245056
 30
0.0
 40
3.96875
 41
0.0
 71
     2
 72
     1
  1
74
  7
SLDTEXTSTYLE1
 73
     1
 44
1.0
  0
MTEXT
  5
2A3
330
1F
100
AcDbEntity
  8
0
  6
Continuous
 62
     7
370
     0
100
AcDbMText
 10
524.9200738929
 20
4195.0136245056
 30
0.0
 40
3.96875
 41
0.0
 71
     2
 72
     1
  1
74
  7
SLDTEXTSTYLE1
 73
     1
 44
1.0
  0
MTEXT
  5
2A4
330
1F
100
AcDbEntity
  8
0
  6
Continuous
 62
     7
370
     0
100
AcDbMText
 10
574.9200738929
 20
10.0136245056
 30
0.0
 40
3.96875
 41
0.0
 71
     2
 72
     1
  1
73
  7
SLDTEXTSTYLE1
 73
     1
 44
1.0
  0
MTEXT
  5
2A5
330
1F
100
AcDbEntity
  8
0
  6
Continuous
 62
     7
370
     0
100
AcDbMText
 10
574.9200738929
 20
4195.0136245056
 30
0.0
 40
3.96875
 41
0.0
 71
     2
 72
     1
  1
73
  7
SLDTEXTSTYLE1
 73
     1
 44
1.0
  0
MTEXT
  5
2A6
330
1F
100
AcDbEntity
  8
0
  6
Continuous
 62
     7
370
     0
100
AcDbMText
 10
624.9200738929
 20
10.0136245056
 30
0.0
 40
3.96875
 41
0.0
 71
     2
 72
     1
  1
72
  7
SLDTEXTSTYLE1
 73
     1
 44
1.0
  0
MTEXT
  5
2A7
330
1F
100
AcDbEntity
  8
0
  6
Continuous
 62
     7
370
     0
100
AcDbMText
 10
624.9200738929
 20
4195.0136245056
 30
0.0
 40
3.96875
 41
0.0
 71
     2
 72
     1
  1
72
  7
SLDTEXTSTYLE1
 73
     1
 44
1.0
  0
MTEXT
  5
2A8
330
1F
100
AcDbEntity
  8
0
  6
Continuous
 62
     7
370
     0
100
AcDbMText
 10
674.9200738929
 20
10.0136245056
 30
0.0
 40
3.96875
 41
0.0
 71
     2
 72
     1
  1
71
  7
SLDTEXTSTYLE1
 73
     1
 44
1.0
  0
MTEXT
  5
2A9
330
1F
100
AcDbEntity
  8
0
  6
Continuous
 62
     7
370
     0
100
AcDbMText
 10
674.9200738929
 20
4195.0136245056
 30
0.0
 40
3.96875
 41
0.0
 71
     2
 72
     1
  1
71
  7
SLDTEXTSTYLE1
 73
     1
 44
1.0
  0
MTEXT
  5
2AA
330
1F
100
AcDbEntity
  8
0
  6
Continuous
 62
     7
370
     0
100
AcDbMText
 10
724.9200738929
 20
10.0136245056
 30
0.0
 40
3.96875
 41
0.0
 71
     2
 72
     1
  1
70
  7
SLDTEXTSTYLE1
 73
     1
 44
1.0
  0
MTEXT
  5
2AB
330
1F
100
AcDbEntity
  8
0
  6
Continuous
 62
     7
370
     0
100
AcDbMText
 10
724.9200738929
 20
4195.0136245056
 30
0.0
 40
3.96875
 41
0.0
 71
     2
 72
     1
  1
70
  7
SLDTEXTSTYLE1
 73
     1
 44
1.0
  0
MTEXT
  5
2AC
330
1F
100
AcDbEntity
  8
0
  6
Continuous
 62
     7
370
     0
100
AcDbMText
 10
774.9200738929
 20
10.0136245056
 30
0.0
 40
3.96875
 41
0.0
 71
     2
 72
     1
  1
69
  7
SLDTEXTSTYLE1
 73
     1
 44
1.0
  0
MTEXT
  5
2AD
330
1F
100
AcDbEntity
  8
0
  6
Continuous
 62
     7
370
     0
100
AcDbMText
 10
774.9200738929
 20
4195.0136245056
 30
0.0
 40
3.96875
 41
0.0
 71
     2
 72
     1
  1
69
  7
SLDTEXTSTYLE1
 73
     1
 44
1.0
  0
MTEXT
  5
2AE
330
1F
100
AcDbEntity
  8
0
  6
Continuous
 62
     7
370
     0
100
AcDbMText
 10
824.9200738929
 20
10.0136245056
 30
0.0
 40
3.96875
 41
0.0
 71
     2
 72
     1
  1
68
  7
SLDTEXTSTYLE1
 73
     1
 44
1.0
  0
MTEXT
  5
2AF
330
1F
100
AcDbEntity
  8
0
  6
Continuous
 62
     7
370
     0
100
AcDbMText
 10
824.9200738929
 20
4195.0136245056
 30
0.0
 40
3.96875
 41
0.0
 71
     2
 72
     1
  1
68
  7
SLDTEXTSTYLE1
 73
     1
 44
1.0
  0
MTEXT
  5
2B0
330
1F
100
AcDbEntity
  8
0
  6
Continuous
 62
     7
370
     0
100
AcDbMText
 10
874.9200738929
 20
10.0136245056
 30
0.0
 40
3.96875
 41
0.0
 71
     2
 72
     1
  1
67
  7
SLDTEXTSTYLE1
 73
     1
 44
1.0
  0
MTEXT
  5
2B1
330
1F
100
AcDbEntity
  8
0
  6
Continuous
 62
     7
370
     0
100
AcDbMText
 10
874.9200738929
 20
4195.0136245056
 30
0.0
 40
3.96875
 41
0.0
 71
     2
 72
     1
  1
67
  7
SLDTEXTSTYLE1
 73
     1
 44
1.0
  0
MTEXT
  5
2B2
330
1F
100
AcDbEntity
  8
0
  6
Continuous
 62
     7
370
     0
100
AcDbMText
 10
924.9200738929
 20
10.0136245056
 30
0.0
 40
3.96875
 41
0.0
 71
     2
 72
     1
  1
66
  7
SLDTEXTSTYLE1
 73
     1
 44
1.0
  0
MTEXT
  5
2B3
330
1F
100
AcDbEntity
  8
0
  6
Continuous
 62
     7
370
     0
100
AcDbMText
 10
924.9200738929
 20
4195.0136245056
 30
0.0
 40
3.96875
 41
0.0
 71
     2
 72
     1
  1
66
  7
SLDTEXTSTYLE1
 73
     1
 44
1.0
  0
MTEXT
  5
2B4
330
1F
100
AcDbEntity
  8
0
  6
Continuous
 62
     7
370
     0
100
AcDbMText
 10
974.9200738929
 20
10.0136245056
 30
0.0
 40
3.96875
 41
0.0
 71
     2
 72
     1
  1
65
  7
SLDTEXTSTYLE1
 73
     1
 44
1.0
  0
MTEXT
  5
2B5
330
1F
100
AcDbEntity
  8
0
  6
Continuous
 62
     7
370
     0
100
AcDbMText
 10
974.9200738929
 20
4195.0136245056
 30
0.0
 40
3.96875
 41
0.0
 71
     2
 72
     1
  1
65
  7
SLDTEXTSTYLE1
 73
     1
 44
1.0
  0
MTEXT
  5
2B6
330
1F
100
AcDbEntity
  8
0
  6
Continuous
 62
     7
370
     0
100
AcDbMText
 10
1024.9200738929
 20
10.0136245056
 30
0.0
 40
3.96875
 41
0.0
 71
     2
 72
     1
  1
64
  7
SLDTEXTSTYLE1
 73
     1
 44
1.0
  0
MTEXT
  5
2B7
330
1F
100
AcDbEntity
  8
0
  6
Continuous
 62
     7
370
     0
100
AcDbMText
 10
1024.9200738929
 20
4195.0136245056
 30
0.0
 40
3.96875
 41
0.0
 71
     2
 72
     1
  1
64
  7
SLDTEXTSTYLE1
 73
     1
 44
1.0
  0
MTEXT
  5
2B8
330
1F
100
AcDbEntity
  8
0
  6
Continuous
 62
     7
370
     0
100
AcDbMText
 10
1074.9200738929
 20
10.0136245056
 30
0.0
 40
3.96875
 41
0.0
 71
     2
 72
     1
  1
63
  7
SLDTEXTSTYLE1
 73
     1
 44
1.0
  0
MTEXT
  5
2B9
330
1F
100
AcDbEntity
  8
0
  6
Continuous
 62
     7
370
     0
100
AcDbMText
 10
1074.9200738929
 20
4195.0136245056
 30
0.0
 40
3.96875
 41
0.0
 71
     2
 72
     1
  1
63
  7
SLDTEXTSTYLE1
 73
     1
 44
1.0
  0
MTEXT
  5
2BA
330
1F
100
AcDbEntity
  8
0
  6
Continuous
 62
     7
370
     0
100
AcDbMText
 10
1124.9200738929
 20
10.0136245056
 30
0.0
 40
3.96875
 41
0.0
 71
     2
 72
     1
  1
62
  7
SLDTEXTSTYLE1
 73
     1
 44
1.0
  0
MTEXT
  5
2BB
330
1F
100
AcDbEntity
  8
0
  6
Continuous
 62
     7
370
     0
100
AcDbMText
 10
1124.9200738929
 20
4195.0136245056
 30
0.0
 40
3.96875
 41
0.0
 71
     2
 72
     1
  1
62
  7
SLDTEXTSTYLE1
 73
     1
 44
1.0
  0
MTEXT
  5
2BC
330
1F
100
AcDbEntity
  8
0
  6
Continuous
 62
     7
370
     0
100
AcDbMText
 10
1174.9200738929
 20
10.0136245056
 30
0.0
 40
3.96875
 41
0.0
 71
     2
 72
     1
  1
61
  7
SLDTEXTSTYLE1
 73
     1
 44
1.0
  0
MTEXT
  5
2BD
330
1F
100
AcDbEntity
  8
0
  6
Continuous
 62
     7
370
     0
100
AcDbMText
 10
1174.9200738929
 20
4195.0136245056
 30
0.0
 40
3.96875
 41
0.0
 71
     2
 72
     1
  1
61
  7
SLDTEXTSTYLE1
 73
     1
 44
1.0
  0
MTEXT
  5
2BE
330
1F
100
AcDbEntity
  8
0
  6
Continuous
 62
     7
370
     0
100
AcDbMText
 10
1224.9200738929
 20
10.0136245056
 30
0.0
 40
3.96875
 41
0.0
 71
     2
 72
     1
  1
60
  7
SLDTEXTSTYLE1
 73
     1
 44
1.0
  0
MTEXT
  5
2BF
330
1F
100
AcDbEntity
  8
0
  6
Continuous
 62
     7
370
     0
100
AcDbMText
 10
1224.9200738929
 20
4195.0136245056
 30
0.0
 40
3.96875
 41
0.0
 71
     2
 72
     1
  1
60
  7
SLDTEXTSTYLE1
 73
     1
 44
1.0
  0
MTEXT
  5
2C0
330
1F
100
AcDbEntity
  8
0
  6
Continuous
 62
     7
370
     0
100
AcDbMText
 10
1274.9200738929
 20
10.0136245056
 30
0.0
 40
3.96875
 41
0.0
 71
     2
 72
     1
  1
59
  7
SLDTEXTSTYLE1
 73
     1
 44
1.0
  0
MTEXT
  5
2C1
330
1F
100
AcDbEntity
  8
0
  6
Continuous
 62
     7
370
     0
100
AcDbMText
 10
1274.9200738929
 20
4195.0136245056
 30
0.0
 40
3.96875
 41
0.0
 71
     2
 72
     1
  1
59
  7
SLDTEXTSTYLE1
 73
     1
 44
1.0
  0
MTEXT
  5
2C2
330
1F
100
AcDbEntity
  8
0
  6
Continuous
 62
     7
370
     0
100
AcDbMText
 10
1324.9200738929
 20
10.0136245056
 30
0.0
 40
3.96875
 41
0.0
 71
     2
 72
     1
  1
58
  7
SLDTEXTSTYLE1
 73
     1
 44
1.0
  0
MTEXT
  5
2C3
330
1F
100
AcDbEntity
  8
0
  6
Continuous
 62
     7
370
     0
100
AcDbMText
 10
1324.9200738929
 20
4195.0136245056
 30
0.0
 40
3.96875
 41
0.0
 71
     2
 72
     1
  1
58
  7
SLDTEXTSTYLE1
 73
     1
 44
1.0
  0
MTEXT
  5
2C4
330
1F
100
AcDbEntity
  8
0
  6
Continuous
 62
     7
370
     0
100
AcDbMText
 10
1374.9200738929
 20
10.0136245056
 30
0.0
 40
3.96875
 41
0.0
 71
     2
 72
     1
  1
57
  7
SLDTEXTSTYLE1
 73
     1
 44
1.0
  0
MTEXT
  5
2C5
330
1F
100
AcDbEntity
  8
0
  6
Continuous
 62
     7
370
     0
100
AcDbMText
 10
1374.9200738929
 20
4195.0136245056
 30
0.0
 40
3.96875
 41
0.0
 71
     2
 72
     1
  1
57
  7
SLDTEXTSTYLE1
 73
     1
 44
1.0
  0
MTEXT
  5
2C6
330
1F
100
AcDbEntity
  8
0
  6
Continuous
 62
     7
370
     0
100
AcDbMText
 10
1424.9200738929
 20
10.0136245056
 30
0.0
 40
3.96875
 41
0.0
 71
     2
 72
     1
  1
56
  7
SLDTEXTSTYLE1
 73
     1
 44
1.0
  0
MTEXT
  5
2C7
330
1F
100
AcDbEntity
  8
0
  6
Continuous
 62
     7
370
     0
100
AcDbMText
 10
1424.9200738929
 20
4195.0136245056
 30
0.0
 40
3.96875
 41
0.0
 71
     2
 72
     1
  1
56
  7
SLDTEXTSTYLE1
 73
     1
 44
1.0
  0
MTEXT
  5
2C8
330
1F
100
AcDbEntity
  8
0
  6
Continuous
 62
     7
370
     0
100
AcDbMText
 10
1474.9200738929
 20
10.0136245056
 30
0.0
 40
3.96875
 41
0.0
 71
     2
 72
     1
  1
55
  7
SLDTEXTSTYLE1
 73
     1
 44
1.0
  0
MTEXT
  5
2C9
330
1F
100
AcDbEntity
  8
0
  6
Continuous
 62
     7
370
     0
100
AcDbMText
 10
1474.9200738929
 20
4195.0136245056
 30
0.0
 40
3.96875
 41
0.0
 71
     2
 72
     1
  1
55
  7
SLDTEXTSTYLE1
 73
     1
 44
1.0
  0
MTEXT
  5
2CA
330
1F
100
AcDbEntity
  8
0
  6
Continuous
 62
     7
370
     0
100
AcDbMText
 10
1524.9200738929
 20
10.0136245056
 30
0.0
 40
3.96875
 41
0.0
 71
     2
 72
     1
  1
54
  7
SLDTEXTSTYLE1
 73
     1
 44
1.0
  0
MTEXT
  5
2CB
330
1F
100
AcDbEntity
  8
0
  6
Continuous
 62
     7
370
     0
100
AcDbMText
 10
1524.9200738929
 20
4195.0136245056
 30
0.0
 40
3.96875
 41
0.0
 71
     2
 72
     1
  1
54
  7
SLDTEXTSTYLE1
 73
     1
 44
1.0
  0
MTEXT
  5
2CC
330
1F
100
AcDbEntity
  8
0
  6
Continuous
 62
     7
370
     0
100
AcDbMText
 10
1574.9200738929
 20
10.0136245056
 30
0.0
 40
3.96875
 41
0.0
 71
     2
 72
     1
  1
53
  7
SLDTEXTSTYLE1
 73
     1
 44
1.0
  0
MTEXT
  5
2CD
330
1F
100
AcDbEntity
  8
0
  6
Continuous
 62
     7
370
     0
100
AcDbMText
 10
1574.9200738929
 20
4195.0136245056
 30
0.0
 40
3.96875
 41
0.0
 71
     2
 72
     1
  1
53
  7
SLDTEXTSTYLE1
 73
     1
 44
1.0
  0
MTEXT
  5
2CE
330
1F
100
AcDbEntity
  8
0
  6
Continuous
 62
     7
370
     0
100
AcDbMText
 10
1624.9200738929
 20
10.0136245056
 30
0.0
 40
3.96875
 41
0.0
 71
     2
 72
     1
  1
52
  7
SLDTEXTSTYLE1
 73
     1
 44
1.0
  0
MTEXT
  5
2CF
330
1F
100
AcDbEntity
  8
0
  6
Continuous
 62
     7
370
     0
100
AcDbMText
 10
1624.9200738929
 20
4195.0136245056
 30
0.0
 40
3.96875
 41
0.0
 71
     2
 72
     1
  1
52
  7
SLDTEXTSTYLE1
 73
     1
 44
1.0
  0
MTEXT
  5
2D0
330
1F
100
AcDbEntity
  8
0
  6
Continuous
 62
     7
370
     0
100
AcDbMText
 10
1674.9200738929
 20
10.0136245056
 30
0.0
 40
3.96875
 41
0.0
 71
     2
 72
     1
  1
51
  7
SLDTEXTSTYLE1
 73
     1
 44
1.0
  0
MTEXT
  5
2D1
330
1F
100
AcDbEntity
  8
0
  6
Continuous
 62
     7
370
     0
100
AcDbMText
 10
1674.9200738929
 20
4195.0136245056
 30
0.0
 40
3.96875
 41
0.0
 71
     2
 72
     1
  1
51
  7
SLDTEXTSTYLE1
 73
     1
 44
1.0
  0
MTEXT
  5
2D2
330
1F
100
AcDbEntity
  8
0
  6
Continuous
 62
     7
370
     0
100
AcDbMText
 10
1724.9200738929
 20
10.0136245056
 30
0.0
 40
3.96875
 41
0.0
 71
     2
 72
     1
  1
50
  7
SLDTEXTSTYLE1
 73
     1
 44
1.0
  0
MTEXT
  5
2D3
330
1F
100
AcDbEntity
  8
0
  6
Continuous
 62
     7
370
     0
100
AcDbMText
 10
1724.9200738929
 20
4195.0136245056
 30
0.0
 40
3.96875
 41
0.0
 71
     2
 72
     1
  1
50
  7
SLDTEXTSTYLE1
 73
     1
 44
1.0
  0
MTEXT
  5
2D4
330
1F
100
AcDbEntity
  8
0
  6
Continuous
 62
     7
370
     0
100
AcDbMText
 10
1774.9200738929
 20
10.0136245056
 30
0.0
 40
3.96875
 41
0.0
 71
     2
 72
     1
  1
49
  7
SLDTEXTSTYLE1
 73
     1
 44
1.0
  0
MTEXT
  5
2D5
330
1F
100
AcDbEntity
  8
0
  6
Continuous
 62
     7
370
     0
100
AcDbMText
 10
1774.9200738929
 20
4195.0136245056
 30
0.0
 40
3.96875
 41
0.0
 71
     2
 72
     1
  1
49
  7
SLDTEXTSTYLE1
 73
     1
 44
1.0
  0
MTEXT
  5
2D6
330
1F
100
AcDbEntity
  8
0
  6
Continuous
 62
     7
370
     0
100
AcDbMText
 10
1824.9200738929
 20
10.0136245056
 30
0.0
 40
3.96875
 41
0.0
 71
     2
 72
     1
  1
48
  7
SLDTEXTSTYLE1
 73
     1
 44
1.0
  0
MTEXT
  5
2D7
330
1F
100
AcDbEntity
  8
0
  6
Continuous
 62
     7
370
     0
100
AcDbMText
 10
1824.9200738929
 20
4195.0136245056
 30
0.0
 40
3.96875
 41
0.0
 71
     2
 72
     1
  1
48
  7
SLDTEXTSTYLE1
 73
     1
 44
1.0
  0
MTEXT
  5
2D8
330
1F
100
AcDbEntity
  8
0
  6
Continuous
 62
     7
370
     0
100
AcDbMText
 10
1874.9200738929
 20
10.0136245056
 30
0.0
 40
3.96875
 41
0.0
 71
     2
 72
     1
  1
47
  7
SLDTEXTSTYLE1
 73
     1
 44
1.0
  0
MTEXT
  5
2D9
330
1F
100
AcDbEntity
  8
0
  6
Continuous
 62
     7
370
     0
100
AcDbMText
 10
1874.9200738929
 20
4195.0136245056
 30
0.0
 40
3.96875
 41
0.0
 71
     2
 72
     1
  1
47
  7
SLDTEXTSTYLE1
 73
     1
 44
1.0
  0
MTEXT
  5
2DA
330
1F
100
AcDbEntity
  8
0
  6
Continuous
 62
     7
370
     0
100
AcDbMText
 10
1924.9200738929
 20
10.0136245056
 30
0.0
 40
3.96875
 41
0.0
 71
     2
 72
     1
  1
46
  7
SLDTEXTSTYLE1
 73
     1
 44
1.0
  0
MTEXT
  5
2DB
330
1F
100
AcDbEntity
  8
0
  6
Continuous
 62
     7
370
     0
100
AcDbMText
 10
1924.9200738929
 20
4195.0136245056
 30
0.0
 40
3.96875
 41
0.0
 71
     2
 72
     1
  1
46
  7
SLDTEXTSTYLE1
 73
     1
 44
1.0
  0
MTEXT
  5
2DC
330
1F
100
AcDbEntity
  8
0
  6
Continuous
 62
     7
370
     0
100
AcDbMText
 10
1974.9200738929
 20
10.0136245056
 30
0.0
 40
3.96875
 41
0.0
 71
     2
 72
     1
  1
45
  7
SLDTEXTSTYLE1
 73
     1
 44
1.0
  0
MTEXT
  5
2DD
330
1F
100
AcDbEntity
  8
0
  6
Continuous
 62
     7
370
     0
100
AcDbMText
 10
1974.9200738929
 20
4195.0136245056
 30
0.0
 40
3.96875
 41
0.0
 71
     2
 72
     1
  1
45
  7
SLDTEXTSTYLE1
 73
     1
 44
1.0
  0
MTEXT
  5
2DE
330
1F
100
AcDbEntity
  8
0
  6
Continuous
 62
     7
370
     0
100
AcDbMText
 10
2024.9200738929
 20
10.0136245056
 30
0.0
 40
3.96875
 41
0.0
 71
     2
 72
     1
  1
44
  7
SLDTEXTSTYLE1
 73
     1
 44
1.0
  0
MTEXT
  5
2DF
330
1F
100
AcDbEntity
  8
0
  6
Continuous
 62
     7
370
     0
100
AcDbMText
 10
2024.9200738929
 20
4195.0136245056
 30
0.0
 40
3.96875
 41
0.0
 71
     2
 72
     1
  1
44
  7
SLDTEXTSTYLE1
 73
     1
 44
1.0
  0
MTEXT
  5
2E0
330
1F
100
AcDbEntity
  8
0
  6
Continuous
 62
     7
370
     0
100
AcDbMText
 10
2074.9200738929
 20
10.0136245056
 30
0.0
 40
3.96875
 41
0.0
 71
     2
 72
     1
  1
43
  7
SLDTEXTSTYLE1
 73
     1
 44
1.0
  0
MTEXT
  5
2E1
330
1F
100
AcDbEntity
  8
0
  6
Continuous
 62
     7
370
     0
100
AcDbMText
 10
2074.9200738929
 20
4195.0136245056
 30
0.0
 40
3.96875
 41
0.0
 71
     2
 72
     1
  1
43
  7
SLDTEXTSTYLE1
 73
     1
 44
1.0
  0
MTEXT
  5
2E2
330
1F
100
AcDbEntity
  8
0
  6
Continuous
 62
     7
370
     0
100
AcDbMText
 10
2124.9200738929
 20
10.0136245056
 30
0.0
 40
3.96875
 41
0.0
 71
     2
 72
     1
  1
42
  7
SLDTEXTSTYLE1
 73
     1
 44
1.0
  0
MTEXT
  5
2E3
330
1F
100
AcDbEntity
  8
0
  6
Continuous
 62
     7
370
     0
100
AcDbMText
 10
2124.9200738929
 20
4195.0136245056
 30
0.0
 40
3.96875
 41
0.0
 71
     2
 72
     1
  1
42
  7
SLDTEXTSTYLE1
 73
     1
 44
1.0
  0
MTEXT
  5
2E4
330
1F
100
AcDbEntity
  8
0
  6
Continuous
 62
     7
370
     0
100
AcDbMText
 10
2174.9200738929
 20
10.0136245056
 30
0.0
 40
3.96875
 41
0.0
 71
     2
 72
     1
  1
41
  7
SLDTEXTSTYLE1
 73
     1
 44
1.0
  0
MTEXT
  5
2E5
330
1F
100
AcDbEntity
  8
0
  6
Continuous
 62
     7
370
     0
100
AcDbMText
 10
2174.9200738929
 20
4195.0136245056
 30
0.0
 40
3.96875
 41
0.0
 71
     2
 72
     1
  1
41
  7
SLDTEXTSTYLE1
 73
     1
 44
1.0
  0
MTEXT
  5
2E6
330
1F
100
AcDbEntity
  8
0
  6
Continuous
 62
     7
370
     0
100
AcDbMText
 10
2224.9200738929
 20
10.0136245056
 30
0.0
 40
3.96875
 41
0.0
 71
     2
 72
     1
  1
40
  7
SLDTEXTSTYLE1
 73
     1
 44
1.0
  0
MTEXT
  5
2E7
330
1F
100
AcDbEntity
  8
0
  6
Continuous
 62
     7
370
     0
100
AcDbMText
 10
2224.9200738929
 20
4195.0136245056
 30
0.0
 40
3.96875
 41
0.0
 71
     2
 72
     1
  1
40
  7
SLDTEXTSTYLE1
 73
     1
 44
1.0
  0
MTEXT
  5
2E8
330
1F
100
AcDbEntity
  8
0
  6
Continuous
 62
     7
370
     0
100
AcDbMText
 10
2274.9200738929
 20
10.0136245056
 30
0.0
 40
3.96875
 41
0.0
 71
     2
 72
     1
  1
39
  7
SLDTEXTSTYLE1
 73
     1
 44
1.0
  0
MTEXT
  5
2E9
330
1F
100
AcDbEntity
  8
0
  6
Continuous
 62
     7
370
     0
100
AcDbMText
 10
2274.9200738929
 20
4195.0136245056
 30
0.0
 40
3.96875
 41
0.0
 71
     2
 72
     1
  1
39
  7
SLDTEXTSTYLE1
 73
     1
 44
1.0
  0
MTEXT
  5
2EA
330
1F
100
AcDbEntity
  8
0
  6
Continuous
 62
     7
370
     0
100
AcDbMText
 10
2324.9200738929
 20
10.0136245056
 30
0.0
 40
3.96875
 41
0.0
 71
     2
 72
     1
  1
38
  7
SLDTEXTSTYLE1
 73
     1
 44
1.0
  0
MTEXT
  5
2EB
330
1F
100
AcDbEntity
  8
0
  6
Continuous
 62
     7
370
     0
100
AcDbMText
 10
2324.9200738929
 20
4195.0136245056
 30
0.0
 40
3.96875
 41
0.0
 71
     2
 72
     1
  1
38
  7
SLDTEXTSTYLE1
 73
     1
 44
1.0
  0
MTEXT
  5
2EC
330
1F
100
AcDbEntity
  8
0
  6
Continuous
 62
     7
370
     0
100
AcDbMText
 10
2374.9200738929
 20
10.0136245056
 30
0.0
 40
3.96875
 41
0.0
 71
     2
 72
     1
  1
37
  7
SLDTEXTSTYLE1
 73
     1
 44
1.0
  0
MTEXT
  5
2ED
330
1F
100
AcDbEntity
  8
0
  6
Continuous
 62
     7
370
     0
100
AcDbMText
 10
2374.9200738929
 20
4195.0136245056
 30
0.0
 40
3.96875
 41
0.0
 71
     2
 72
     1
  1
37
  7
SLDTEXTSTYLE1
 73
     1
 44
1.0
  0
MTEXT
  5
2EE
330
1F
100
AcDbEntity
  8
0
  6
Continuous
 62
     7
370
     0
100
AcDbMText
 10
2424.9200738929
 20
10.0136245056
 30
0.0
 40
3.96875
 41
0.0
 71
     2
 72
     1
  1
36
  7
SLDTEXTSTYLE1
 73
     1
 44
1.0
  0
MTEXT
  5
2EF
330
1F
100
AcDbEntity
  8
0
  6
Continuous
 62
     7
370
     0
100
AcDbMText
 10
2424.9200738929
 20
4195.0136245056
 30
0.0
 40
3.96875
 41
0.0
 71
     2
 72
     1
  1
36
  7
SLDTEXTSTYLE1
 73
     1
 44
1.0
  0
MTEXT
  5
2F0
330
1F
100
AcDbEntity
  8
0
  6
Continuous
 62
     7
370
     0
100
AcDbMText
 10
2474.9200738929
 20
10.0136245056
 30
0.0
 40
3.96875
 41
0.0
 71
     2
 72
     1
  1
35
  7
SLDTEXTSTYLE1
 73
     1
 44
1.0
  0
MTEXT
  5
2F1
330
1F
100
AcDbEntity
  8
0
  6
Continuous
 62
     7
370
     0
100
AcDbMText
 10
2474.9200738929
 20
4195.0136245056
 30
0.0
 40
3.96875
 41
0.0
 71
     2
 72
     1
  1
35
  7
SLDTEXTSTYLE1
 73
     1
 44
1.0
  0
MTEXT
  5
2F2
330
1F
100
AcDbEntity
  8
0
  6
Continuous
 62
     7
370
     0
100
AcDbMText
 10
2524.9200738929
 20
10.0136245056
 30
0.0
 40
3.96875
 41
0.0
 71
     2
 72
     1
  1
34
  7
SLDTEXTSTYLE1
 73
     1
 44
1.0
  0
MTEXT
  5
2F3
330
1F
100
AcDbEntity
  8
0
  6
Continuous
 62
     7
370
     0
100
AcDbMText
 10
2524.9200738929
 20
4195.0136245056
 30
0.0
 40
3.96875
 41
0.0
 71
     2
 72
     1
  1
34
  7
SLDTEXTSTYLE1
 73
     1
 44
1.0
  0
MTEXT
  5
2F4
330
1F
100
AcDbEntity
  8
0
  6
Continuous
 62
     7
370
     0
100
AcDbMText
 10
2574.9200738929
 20
10.0136245056
 30
0.0
 40
3.96875
 41
0.0
 71
     2
 72
     1
  1
33
  7
SLDTEXTSTYLE1
 73
     1
 44
1.0
  0
MTEXT
  5
2F5
330
1F
100
AcDbEntity
  8
0
  6
Continuous
 62
     7
370
     0
100
AcDbMText
 10
2574.9200738929
 20
4195.0136245056
 30
0.0
 40
3.96875
 41
0.0
 71
     2
 72
     1
  1
33
  7
SLDTEXTSTYLE1
 73
     1
 44
1.0
  0
MTEXT
  5
2F6
330
1F
100
AcDbEntity
  8
0
  6
Continuous
 62
     7
370
     0
100
AcDbMText
 10
2624.9200738929
 20
10.0136245056
 30
0.0
 40
3.96875
 41
0.0
 71
     2
 72
     1
  1
32
  7
SLDTEXTSTYLE1
 73
     1
 44
1.0
  0
MTEXT
  5
2F7
330
1F
100
AcDbEntity
  8
0
  6
Continuous
 62
     7
370
     0
100
AcDbMText
 10
2624.9200738929
 20
4195.0136245056
 30
0.0
 40
3.96875
 41
0.0
 71
     2
 72
     1
  1
32
  7
SLDTEXTSTYLE1
 73
     1
 44
1.0
  0
MTEXT
  5
2F8
330
1F
100
AcDbEntity
  8
0
  6
Continuous
 62
     7
370
     0
100
AcDbMText
 10
2674.9200738929
 20
10.0136245056
 30
0.0
 40
3.96875
 41
0.0
 71
     2
 72
     1
  1
31
  7
SLDTEXTSTYLE1
 73
     1
 44
1.0
  0
MTEXT
  5
2F9
330
1F
100
AcDbEntity
  8
0
  6
Continuous
 62
     7
370
     0
100
AcDbMText
 10
2674.9200738929
 20
4195.0136245056
 30
0.0
 40
3.96875
 41
0.0
 71
     2
 72
     1
  1
31
  7
SLDTEXTSTYLE1
 73
     1
 44
1.0
  0
MTEXT
  5
2FA
330
1F
100
AcDbEntity
  8
0
  6
Continuous
 62
     7
370
     0
100
AcDbMText
 10
2724.9200738929
 20
10.0136245056
 30
0.0
 40
3.96875
 41
0.0
 71
     2
 72
     1
  1
30
  7
SLDTEXTSTYLE1
 73
     1
 44
1.0
  0
MTEXT
  5
2FB
330
1F
100
AcDbEntity
  8
0
  6
Continuous
 62
     7
370
     0
100
AcDbMText
 10
2724.9200738929
 20
4195.0136245056
 30
0.0
 40
3.96875
 41
0.0
 71
     2
 72
     1
  1
30
  7
SLDTEXTSTYLE1
 73
     1
 44
1.0
  0
MTEXT
  5
2FC
330
1F
100
AcDbEntity
  8
0
  6
Continuous
 62
     7
370
     0
100
AcDbMText
 10
2774.9200738929
 20
10.0136245056
 30
0.0
 40
3.96875
 41
0.0
 71
     2
 72
     1
  1
29
  7
SLDTEXTSTYLE1
 73
     1
 44
1.0
  0
MTEXT
  5
2FD
330
1F
100
AcDbEntity
  8
0
  6
Continuous
 62
     7
370
     0
100
AcDbMText
 10
2774.9200738929
 20
4195.0136245056
 30
0.0
 40
3.96875
 41
0.0
 71
     2
 72
     1
  1
29
  7
SLDTEXTSTYLE1
 73
     1
 44
1.0
  0
MTEXT
  5
2FE
330
1F
100
AcDbEntity
  8
0
  6
Continuous
 62
     7
370
     0
100
AcDbMText
 10
2824.9200738929
 20
10.0136245056
 30
0.0
 40
3.96875
 41
0.0
 71
     2
 72
     1
  1
28
  7
SLDTEXTSTYLE1
 73
     1
 44
1.0
  0
MTEXT
  5
2FF
330
1F
100
AcDbEntity
  8
0
  6
Continuous
 62
     7
370
     0
100
AcDbMText
 10
2824.9200738929
 20
4195.0136245056
 30
0.0
 40
3.96875
 41
0.0
 71
     2
 72
     1
  1
28
  7
SLDTEXTSTYLE1
 73
     1
 44
1.0
  0
MTEXT
  5
300
330
1F
100
AcDbEntity
  8
0
  6
Continuous
 62
     7
370
     0
100
AcDbMText
 10
2874.9200738929
 20
10.0136245056
 30
0.0
 40
3.96875
 41
0.0
 71
     2
 72
     1
  1
27
  7
SLDTEXTSTYLE1
 73
     1
 44
1.0
  0
MTEXT
  5
301
330
1F
100
AcDbEntity
  8
0
  6
Continuous
 62
     7
370
     0
100
AcDbMText
 10
2874.9200738929
 20
4195.0136245056
 30
0.0
 40
3.96875
 41
0.0
 71
     2
 72
     1
  1
27
  7
SLDTEXTSTYLE1
 73
     1
 44
1.0
  0
MTEXT
  5
302
330
1F
100
AcDbEntity
  8
0
  6
Continuous
 62
     7
370
     0
100
AcDbMText
 10
2924.9200738929
 20
10.0136245056
 30
0.0
 40
3.96875
 41
0.0
 71
     2
 72
     1
  1
26
  7
SLDTEXTSTYLE1
 73
     1
 44
1.0
  0
MTEXT
  5
303
330
1F
100
AcDbEntity
  8
0
  6
Continuous
 62
     7
370
     0
100
AcDbMText
 10
2924.9200738929
 20
4195.0136245056
 30
0.0
 40
3.96875
 41
0.0
 71
     2
 72
     1
  1
26
  7
SLDTEXTSTYLE1
 73
     1
 44
1.0
  0
MTEXT
  5
304
330
1F
100
AcDbEntity
  8
0
  6
Continuous
 62
     7
370
     0
100
AcDbMText
 10
2974.9200738929
 20
10.0136245056
 30
0.0
 40
3.96875
 41
0.0
 71
     2
 72
     1
  1
25
  7
SLDTEXTSTYLE1
 73
     1
 44
1.0
  0
MTEXT
  5
305
330
1F
100
AcDbEntity
  8
0
  6
Continuous
 62
     7
370
     0
100
AcDbMText
 10
2974.9200738929
 20
4195.0136245056
 30
0.0
 40
3.96875
 41
0.0
 71
     2
 72
     1
  1
25
  7
SLDTEXTSTYLE1
 73
     1
 44
1.0
  0
MTEXT
  5
306
330
1F
100
AcDbEntity
  8
0
  6
Continuous
 62
     7
370
     0
100
AcDbMText
 10
3024.9200738929
 20
10.0136245056
 30
0.0
 40
3.96875
 41
0.0
 71
     2
 72
     1
  1
24
  7
SLDTEXTSTYLE1
 73
     1
 44
1.0
  0
MTEXT
  5
307
330
1F
100
AcDbEntity
  8
0
  6
Continuous
 62
     7
370
     0
100
AcDbMText
 10
3024.9200738929
 20
4195.0136245056
 30
0.0
 40
3.96875
 41
0.0
 71
     2
 72
     1
  1
24
  7
SLDTEXTSTYLE1
 73
     1
 44
1.0
  0
MTEXT
  5
308
330
1F
100
AcDbEntity
  8
0
  6
Continuous
 62
     7
370
     0
100
AcDbMText
 10
3074.9200738929
 20
10.0136245056
 30
0.0
 40
3.96875
 41
0.0
 71
     2
 72
     1
  1
23
  7
SLDTEXTSTYLE1
 73
     1
 44
1.0
  0
MTEXT
  5
309
330
1F
100
AcDbEntity
  8
0
  6
Continuous
 62
     7
370
     0
100
AcDbMText
 10
3074.9200738929
 20
4195.0136245056
 30
0.0
 40
3.96875
 41
0.0
 71
     2
 72
     1
  1
23
  7
SLDTEXTSTYLE1
 73
     1
 44
1.0
  0
MTEXT
  5
30A
330
1F
100
AcDbEntity
  8
0
  6
Continuous
 62
     7
370
     0
100
AcDbMText
 10
3124.9200738929
 20
10.0136245056
 30
0.0
 40
3.96875
 41
0.0
 71
     2
 72
     1
  1
22
  7
SLDTEXTSTYLE1
 73
     1
 44
1.0
  0
MTEXT
  5
30B
330
1F
100
AcDbEntity
  8
0
  6
Continuous
 62
     7
370
     0
100
AcDbMText
 10
3124.9200738929
 20
4195.0136245056
 30
0.0
 40
3.96875
 41
0.0
 71
     2
 72
     1
  1
22
  7
SLDTEXTSTYLE1
 73
     1
 44
1.0
  0
MTEXT
  5
30C
330
1F
100
AcDbEntity
  8
0
  6
Continuous
 62
     7
370
     0
100
AcDbMText
 10
3174.9200738929
 20
10.0136245056
 30
0.0
 40
3.96875
 41
0.0
 71
     2
 72
     1
  1
21
  7
SLDTEXTSTYLE1
 73
     1
 44
1.0
  0
MTEXT
  5
30D
330
1F
100
AcDbEntity
  8
0
  6
Continuous
 62
     7
370
     0
100
AcDbMText
 10
3174.9200738929
 20
4195.0136245056
 30
0.0
 40
3.96875
 41
0.0
 71
     2
 72
     1
  1
21
  7
SLDTEXTSTYLE1
 73
     1
 44
1.0
  0
MTEXT
  5
30E
330
1F
100
AcDbEntity
  8
0
  6
Continuous
 62
     7
370
     0
100
AcDbMText
 10
3224.9200738929
 20
10.0136245056
 30
0.0
 40
3.96875
 41
0.0
 71
     2
 72
     1
  1
20
  7
SLDTEXTSTYLE1
 73
     1
 44
1.0
  0
MTEXT
  5
30F
330
1F
100
AcDbEntity
  8
0
  6
Continuous
 62
     7
370
     0
100
AcDbMText
 10
3224.9200738929
 20
4195.0136245056
 30
0.0
 40
3.96875
 41
0.0
 71
     2
 72
     1
  1
20
  7
SLDTEXTSTYLE1
 73
     1
 44
1.0
  0
MTEXT
  5
310
330
1F
100
AcDbEntity
  8
0
  6
Continuous
 62
     7
370
     0
100
AcDbMText
 10
3274.9200738929
 20
10.0136245056
 30
0.0
 40
3.96875
 41
0.0
 71
     2
 72
     1
  1
19
  7
SLDTEXTSTYLE1
 73
     1
 44
1.0
  0
MTEXT
  5
311
330
1F
100
AcDbEntity
  8
0
  6
Continuous
 62
     7
370
     0
100
AcDbMText
 10
3274.9200738929
 20
4195.0136245056
 30
0.0
 40
3.96875
 41
0.0
 71
     2
 72
     1
  1
19
  7
SLDTEXTSTYLE1
 73
     1
 44
1.0
  0
MTEXT
  5
312
330
1F
100
AcDbEntity
  8
0
  6
Continuous
 62
     7
370
     0
100
AcDbMText
 10
3324.9200738929
 20
10.0136245056
 30
0.0
 40
3.96875
 41
0.0
 71
     2
 72
     1
  1
18
  7
SLDTEXTSTYLE1
 73
     1
 44
1.0
  0
MTEXT
  5
313
330
1F
100
AcDbEntity
  8
0
  6
Continuous
 62
     7
370
     0
100
AcDbMText
 10
3324.9200738929
 20
4195.0136245056
 30
0.0
 40
3.96875
 41
0.0
 71
     2
 72
     1
  1
18
  7
SLDTEXTSTYLE1
 73
     1
 44
1.0
  0
MTEXT
  5
314
330
1F
100
AcDbEntity
  8
0
  6
Continuous
 62
     7
370
     0
100
AcDbMText
 10
3374.9200738929
 20
10.0136245056
 30
0.0
 40
3.96875
 41
0.0
 71
     2
 72
     1
  1
17
  7
SLDTEXTSTYLE1
 73
     1
 44
1.0
  0
MTEXT
  5
315
330
1F
100
AcDbEntity
  8
0
  6
Continuous
 62
     7
370
     0
100
AcDbMText
 10
3374.9200738929
 20
4195.0136245056
 30
0.0
 40
3.96875
 41
0.0
 71
     2
 72
     1
  1
17
  7
SLDTEXTSTYLE1
 73
     1
 44
1.0
  0
MTEXT
  5
316
330
1F
100
AcDbEntity
  8
0
  6
Continuous
 62
     7
370
     0
100
AcDbMText
 10
3424.9200738929
 20
10.0136245056
 30
0.0
 40
3.96875
 41
0.0
 71
     2
 72
     1
  1
16
  7
SLDTEXTSTYLE1
 73
     1
 44
1.0
  0
MTEXT
  5
317
330
1F
100
AcDbEntity
  8
0
  6
Continuous
 62
     7
370
     0
100
AcDbMText
 10
3424.9200738929
 20
4195.0136245056
 30
0.0
 40
3.96875
 41
0.0
 71
     2
 72
     1
  1
16
  7
SLDTEXTSTYLE1
 73
     1
 44
1.0
  0
MTEXT
  5
318
330
1F
100
AcDbEntity
  8
0
  6
Continuous
 62
     7
370
     0
100
AcDbMText
 10
3474.9200738929
 20
10.0136245056
 30
0.0
 40
3.96875
 41
0.0
 71
     2
 72
     1
  1
15
  7
SLDTEXTSTYLE1
 73
     1
 44
1.0
  0
MTEXT
  5
319
330
1F
100
AcDbEntity
  8
0
  6
Continuous
 62
     7
370
     0
100
AcDbMText
 10
3474.9200738929
 20
4195.0136245056
 30
0.0
 40
3.96875
 41
0.0
 71
     2
 72
     1
  1
15
  7
SLDTEXTSTYLE1
 73
     1
 44
1.0
  0
MTEXT
  5
31A
330
1F
100
AcDbEntity
  8
0
  6
Continuous
 62
     7
370
     0
100
AcDbMText
 10
3524.9200738929
 20
10.0136245056
 30
0.0
 40
3.96875
 41
0.0
 71
     2
 72
     1
  1
14
  7
SLDTEXTSTYLE1
 73
     1
 44
1.0
  0
MTEXT
  5
31B
330
1F
100
AcDbEntity
  8
0
  6
Continuous
 62
     7
370
     0
100
AcDbMText
 10
3524.9200738929
 20
4195.0136245056
 30
0.0
 40
3.96875
 41
0.0
 71
     2
 72
     1
  1
14
  7
SLDTEXTSTYLE1
 73
     1
 44
1.0
  0
MTEXT
  5
31C
330
1F
100
AcDbEntity
  8
0
  6
Continuous
 62
     7
370
     0
100
AcDbMText
 10
3574.9200738929
 20
10.0136245056
 30
0.0
 40
3.96875
 41
0.0
 71
     2
 72
     1
  1
13
  7
SLDTEXTSTYLE1
 73
     1
 44
1.0
  0
MTEXT
  5
31D
330
1F
100
AcDbEntity
  8
0
  6
Continuous
 62
     7
370
     0
100
AcDbMText
 10
3574.9200738929
 20
4195.0136245056
 30
0.0
 40
3.96875
 41
0.0
 71
     2
 72
     1
  1
13
  7
SLDTEXTSTYLE1
 73
     1
 44
1.0
  0
MTEXT
  5
31E
330
1F
100
AcDbEntity
  8
0
  6
Continuous
 62
     7
370
     0
100
AcDbMText
 10
3624.9200738929
 20
10.0136245056
 30
0.0
 40
3.96875
 41
0.0
 71
     2
 72
     1
  1
12
  7
SLDTEXTSTYLE1
 73
     1
 44
1.0
  0
MTEXT
  5
31F
330
1F
100
AcDbEntity
  8
0
  6
Continuous
 62
     7
370
     0
100
AcDbMText
 10
3624.9200738929
 20
4195.0136245056
 30
0.0
 40
3.96875
 41
0.0
 71
     2
 72
     1
  1
12
  7
SLDTEXTSTYLE1
 73
     1
 44
1.0
  0
MTEXT
  5
320
330
1F
100
AcDbEntity
  8
0
  6
Continuous
 62
     7
370
     0
100
AcDbMText
 10
3674.9200738929
 20
10.0136245056
 30
0.0
 40
3.96875
 41
0.0
 71
     2
 72
     1
  1
11
  7
SLDTEXTSTYLE1
 73
     1
 44
1.0
  0
MTEXT
  5
321
330
1F
100
AcDbEntity
  8
0
  6
Continuous
 62
     7
370
     0
100
AcDbMText
 10
3674.9200738929
 20
4195.0136245056
 30
0.0
 40
3.96875
 41
0.0
 71
     2
 72
     1
  1
11
  7
SLDTEXTSTYLE1
 73
     1
 44
1.0
  0
MTEXT
  5
322
330
1F
100
AcDbEntity
  8
0
  6
Continuous
 62
     7
370
     0
100
AcDbMText
 10
3724.9200738929
 20
10.0136245056
 30
0.0
 40
3.96875
 41
0.0
 71
     2
 72
     1
  1
10
  7
SLDTEXTSTYLE1
 73
     1
 44
1.0
  0
MTEXT
  5
323
330
1F
100
AcDbEntity
  8
0
  6
Continuous
 62
     7
370
     0
100
AcDbMText
 10
3724.9200738929
 20
4195.0136245056
 30
0.0
 40
3.96875
 41
0.0
 71
     2
 72
     1
  1
10
  7
SLDTEXTSTYLE1
 73
     1
 44
1.0
  0
MTEXT
  5
324
330
1F
100
AcDbEntity
  8
0
  6
Continuous
 62
     7
370
     0
100
AcDbMText
 10
3774.9600369465
 20
10.0136245056
 30
0.0
 40
3.96875
 41
0.0
 71
     2
 72
     1
  1
9
  7
SLDTEXTSTYLE1
 73
     1
 44
1.0
  0
MTEXT
  5
325
330
1F
100
AcDbEntity
  8
0
  6
Continuous
 62
     7
370
     0
100
AcDbMText
 10
3774.9600369465
 20
4195.0136245056
 30
0.0
 40
3.96875
 41
0.0
 71
     2
 72
     1
  1
9
  7
SLDTEXTSTYLE1
 73
     1
 44
1.0
  0
MTEXT
  5
326
330
1F
100
AcDbEntity
  8
0
  6
Continuous
 62
     7
370
     0
100
AcDbMText
 10
3824.9600369465
 20
10.0136245056
 30
0.0
 40
3.96875
 41
0.0
 71
     2
 72
     1
  1
8
  7
SLDTEXTSTYLE1
 73
     1
 44
1.0
  0
MTEXT
  5
327
330
1F
100
AcDbEntity
  8
0
  6
Continuous
 62
     7
370
     0
100
AcDbMText
 10
3824.9600369465
 20
4195.0136245056
 30
0.0
 40
3.96875
 41
0.0
 71
     2
 72
     1
  1
8
  7
SLDTEXTSTYLE1
 73
     1
 44
1.0
  0
MTEXT
  5
328
330
1F
100
AcDbEntity
  8
0
  6
Continuous
 62
     7
370
     0
100
AcDbMText
 10
3874.9600369465
 20
10.0136245056
 30
0.0
 40
3.96875
 41
0.0
 71
     2
 72
     1
  1
7
  7
SLDTEXTSTYLE1
 73
     1
 44
1.0
  0
MTEXT
  5
329
330
1F
100
AcDbEntity
  8
0
  6
Continuous
 62
     7
370
     0
100
AcDbMText
 10
3874.9600369465
 20
4195.0136245056
 30
0.0
 40
3.96875
 41
0.0
 71
     2
 72
     1
  1
7
  7
SLDTEXTSTYLE1
 73
     1
 44
1.0
  0
MTEXT
  5
32A
330
1F
100
AcDbEntity
  8
0
  6
Continuous
 62
     7
370
     0
100
AcDbMText
 10
3924.9600369465
 20
10.0136245056
 30
0.0
 40
3.96875
 41
0.0
 71
     2
 72
     1
  1
6
  7
SLDTEXTSTYLE1
 73
     1
 44
1.0
  0
MTEXT
  5
32B
330
1F
100
AcDbEntity
  8
0
  6
Continuous
 62
     7
370
     0
100
AcDbMText
 10
3924.9600369465
 20
4195.0136245056
 30
0.0
 40
3.96875
 41
0.0
 71
     2
 72
     1
  1
6
  7
SLDTEXTSTYLE1
 73
     1
 44
1.0
  0
MTEXT
  5
32C
330
1F
100
AcDbEntity
  8
0
  6
Continuous
 62
     7
370
     0
100
AcDbMText
 10
3974.9600369465
 20
10.0136245056
 30
0.0
 40
3.96875
 41
0.0
 71
     2
 72
     1
  1
5
  7
SLDTEXTSTYLE1
 73
     1
 44
1.0
  0
MTEXT
  5
32D
330
1F
100
AcDbEntity
  8
0
  6
Continuous
 62
     7
370
     0
100
AcDbMText
 10
3974.9600369465
 20
4195.0136245056
 30
0.0
 40
3.96875
 41
0.0
 71
     2
 72
     1
  1
5
  7
SLDTEXTSTYLE1
 73
     1
 44
1.0
  0
MTEXT
  5
32E
330
1F
100
AcDbEntity
  8
0
  6
Continuous
 62
     7
370
     0
100
AcDbMText
 10
4024.9600369465
 20
10.0136245056
 30
0.0
 40
3.96875
 41
0.0
 71
     2
 72
     1
  1
4
  7
SLDTEXTSTYLE1
 73
     1
 44
1.0
  0
MTEXT
  5
32F
330
1F
100
AcDbEntity
  8
0
  6
Continuous
 62
     7
370
     0
100
AcDbMText
 10
4024.9600369465
 20
4195.0136245056
 30
0.0
 40
3.96875
 41
0.0
 71
     2
 72
     1
  1
4
  7
SLDTEXTSTYLE1
 73
     1
 44
1.0
  0
MTEXT
  5
330
330
1F
100
AcDbEntity
  8
0
  6
Continuous
 62
     7
370
     0
100
AcDbMText
 10
4074.9600369465
 20
10.0136245056
 30
0.0
 40
3.96875
 41
0.0
 71
     2
 72
     1
  1
3
  7
SLDTEXTSTYLE1
 73
     1
 44
1.0
  0
MTEXT
  5
331
330
1F
100
AcDbEntity
  8
0
  6
Continuous
 62
     7
370
     0
100
AcDbMText
 10
4074.9600369465
 20
4195.0136245056
 30
0.0
 40
3.96875
 41
0.0
 71
     2
 72
     1
  1
3
  7
SLDTEXTSTYLE1
 73
     1
 44
1.0
  0
MTEXT
  5
332
330
1F
100
AcDbEntity
  8
0
  6
Continuous
 62
     7
370
     0
100
AcDbMText
 10
4124.9600369465
 20
10.0136245056
 30
0.0
 40
3.96875
 41
0.0
 71
     2
 72
     1
  1
2
  7
SLDTEXTSTYLE1
 73
     1
 44
1.0
  0
MTEXT
  5
333
330
1F
100
AcDbEntity
  8
0
  6
Continuous
 62
     7
370
     0
100
AcDbMText
 10
4124.9600369465
 20
4195.0136245056
 30
0.0
 40
3.96875
 41
0.0
 71
     2
 72
     1
  1
2
  7
SLDTEXTSTYLE1
 73
     1
 44
1.0
  0
MTEXT
  5
334
330
1F
100
AcDbEntity
  8
0
  6
Continuous
 62
     7
370
     0
100
AcDbMText
 10
4169.9600369465
 20
10.0136245056
 30
0.0
 40
3.96875
 41
0.0
 71
     2
 72
     1
  1
1
  7
SLDTEXTSTYLE1
 73
     1
 44
1.0
  0
MTEXT
  5
335
330
1F
100
AcDbEntity
  8
0
  6
Continuous
 62
     7
370
     0
100
AcDbMText
 10
4169.9600369465
 20
4195.0136245056
 30
0.0
 40
3.96875
 41
0.0
 71
     2
 72
     1
  1
1
  7
SLDTEXTSTYLE1
 73
     1
 44
1.0
  0
CIRCLE
  5
336
330
1F
100
AcDbEntity
  8
0
  6
Continuous
 62
     7
370
    25
100
AcDbCircle
 10
697.3889218349
 20
165.8578471969
 30
0.0
 40
81.50000000000014
  0
CIRCLE
  5
337
330
1F
100
AcDbEntity
  8
0
  6
Continuous
 62
     7
370
    25
100
AcDbCircle
 10
3107.3889218349
 20
1851.8578471969
 30
0.0
 40
81.5
  0
CIRCLE
  5
338
330
1F
100
AcDbEntity
  8
0
  6
Continuous
 62
     7
370
    25
100
AcDbCircle
 10
3677.3889218349
 20
1494.8578471969
 30
0.0
 40
12.50000000000023
  0
CIRCLE
  5
339
330
1F
100
AcDbEntity
  8
0
  6
Continuous
 62
     7
370
    25
100
AcDbCircle
 10
3417.3889218349
 20
1851.8578471969
 30
0.0
 40
81.50000000000023
  0
CIRCLE
  5
33A
330
1F
100
AcDbEntity
  8
0
  6
Continuous
 62
     7
370
    25
100
AcDbCircle
 10
2377.3889218349
 20
1494.8578471969
 30
0.0
 40
12.50000000000023
  0
CIRCLE
  5
33B
330
1F
100
AcDbEntity
  8
0
  6
Continuous
 62
     7
370
    25
100
AcDbCircle
 10
2317.3889218349
 20
1494.8578471969
 30
0.0
 40
12.50000000000023
  0
CIRCLE
  5
33C
330
1F
100
AcDbEntity
  8
0
  6
Continuous
 62
     7
370
    25
100
AcDbCircle
 10
2787.3889218349
 20
1494.8578471969
 30
0.0
 40
12.50000000000023
  0
CIRCLE
  5
33D
330
1F
100
AcDbEntity
  8
0
  6
Continuous
 62
     7
370
    25
100
AcDbCircle
 10
2847.3889218349
 20
1494.8578471969
 30
0.0
 40
12.50000000000023
  0
CIRCLE
  5
33E
330
1F
100
AcDbEntity
  8
0
  6
Continuous
 62
     7
370
    25
100
AcDbCircle
 10
2606.3889218349
 20
791.8578471969
 30
0.0
 40
12.49999999999977
  0
CIRCLE
  5
33F
330
1F
100
AcDbEntity
  8
0
  6
Continuous
 62
     7
370
    25
100
AcDbCircle
 10
2666.3889218349
 20
791.8578471969
 30
0.0
 40
12.50000000000068
  0
CIRCLE
  5
340
330
1F
100
AcDbEntity
  8
0
  6
Continuous
 62
     7
370
    25
100
AcDbCircle
 10
2486.3889218349
 20
791.8578471969
 30
0.0
 40
12.49999999999977
  0
CIRCLE
  5
341
330
1F
100
AcDbEntity
  8
0
  6
Continuous
 62
     7
370
    25
100
AcDbCircle
 10
2546.3889218349
 20
791.8578471969
 30
0.0
 40
12.50000000000068
  0
CIRCLE
  5
342
330
1F
100
AcDbEntity
  8
0
  6
Continuous
 62
     7
370
    25
100
AcDbCircle
 10
3126.3889218349
 20
868.8578471969
 30
0.0
 40
81.50000000000011
  0
CIRCLE
  5
343
330
1F
100
AcDbEntity
  8
0
  6
Continuous
 62
     7
370
    25
100
AcDbCircle
 10
3126.3889218349
 20
1148.8578471969
 30
0.0
 40
81.5
  0
CIRCLE
  5
344
330
1F
100
AcDbEntity
  8
0
  6
Continuous
 62
     7
370
    25
100
AcDbCircle
 10
2846.3889218349
 20
868.8578471969
 30
0.0
 40
81.50000000000011
  0
CIRCLE
  5
345
330
1F
100
AcDbEntity
  8
0
  6
Continuous
 62
     7
370
    25
100
AcDbCircle
 10
2846.3889218349
 20
1148.8578471969
 30
0.0
 40
81.5
  0
CIRCLE
  5
346
330
1F
100
AcDbEntity
  8
0
  6
Continuous
 62
     7
370
    25
100
AcDbCircle
 10
580.3889218349
 20
2197.8578471969
 30
0.0
 40
12.5
  0
CIRCLE
  5
347
330
1F
100
AcDbEntity
  8
0
  6
Continuous
 62
     7
370
    25
100
AcDbCircle
 10
640.3889218349
 20
2197.8578471969
 30
0.0
 40
12.5
  0
CIRCLE
  5
348
330
1F
100
AcDbEntity
  8
0
  6
Continuous
 62
     7
370
    25
100
AcDbCircle
 10
380.3889218349
 20
2554.8578471969
 30
0.0
 40
81.5
  0
CIRCLE
  5
349
330
1F
100
AcDbEntity
  8
0
  6
Continuous
 62
     7
370
    25
100
AcDbCircle
 10
700.3889218349
 20
2414.8578471969
 30
0.0
 40
106.4999999999995
  0
CIRCLE
  5
34A
330
1F
100
AcDbEntity
  8
0
  6
Continuous
 62
     7
370
    25
100
AcDbCircle
 10
1173.3889218349
 20
2197.8578471969
 30
0.0
 40
12.5
  0
CIRCLE
  5
34B
330
1F
100
AcDbEntity
  8
0
  6
Continuous
 62
     7
370
    25
100
AcDbCircle
 10
1233.3889218349
 20
2197.8578471969
 30
0.0
 40
12.5
  0
CIRCLE
  5
34C
330
1F
100
AcDbEntity
  8
0
  6
Continuous
 62
     7
370
    25
100
AcDbCircle
 10
700.3889218349
 20
2197.8578471969
 30
0.0
 40
12.5
  0
CIRCLE
  5
34D
330
1F
100
AcDbEntity
  8
0
  6
Continuous
 62
     7
370
    25
100
AcDbCircle
 10
1113.3889218349
 20
2197.8578471969
 30
0.0
 40
12.5
  0
CIRCLE
  5
34E
330
1F
100
AcDbEntity
  8
0
  6
Continuous
 62
     7
370
    25
100
AcDbCircle
 10
2057.3889218349
 20
1571.8578471969
 30
0.0
 40
81.5
  0
CIRCLE
  5
34F
330
1F
100
AcDbEntity
  8
0
  6
Continuous
 62
     7
370
    25
100
AcDbCircle
 10
1737.3889218349
 20
1494.8578471969
 30
0.0
 40
12.50000000000023
  0
CIRCLE
  5
350
330
1F
100
AcDbEntity
  8
0
  6
Continuous
 62
     7
370
    25
100
AcDbCircle
 10
2377.3889218349
 20
1711.8578471969
 30
0.0
 40
106.5
  0
CIRCLE
  5
351
330
1F
100
AcDbEntity
  8
0
  6
Continuous
 62
     7
370
    25
100
AcDbCircle
 10
2057.3889218349
 20
1851.8578471969
 30
0.0
 40
81.5
  0
CIRCLE
  5
352
330
1F
100
AcDbEntity
  8
0
  6
Continuous
 62
     7
370
    25
100
AcDbCircle
 10
697.3889218349
 20
1811.8578471969
 30
0.0
 40
81.5
  0
CIRCLE
  5
353
330
1F
100
AcDbEntity
  8
0
  6
Continuous
 62
     7
370
    25
100
AcDbCircle
 10
380.3889218349
 20
2274.8578471969
 30
0.0
 40
81.5
  0
CIRCLE
  5
354
330
1F
100
AcDbEntity
  8
0
  6
Continuous
 62
     7
370
    25
100
AcDbCircle
 10
1737.3889218349
 20
1711.8578471969
 30
0.0
 40
106.5
  0
CIRCLE
  5
355
330
1F
100
AcDbEntity
  8
0
  6
Continuous
 62
     7
370
    25
100
AcDbCircle
 10
1007.3889218349
 20
1811.8578471969
 30
0.0
 40
81.5
  0
CIRCLE
  5
356
330
1F
100
AcDbEntity
  8
0
  6
Continuous
 62
     7
370
    25
100
AcDbCircle
 10
1207.3889218349
 20
88.8578471969
 30
0.0
 40
12.50000000000018
  0
CIRCLE
  5
357
330
1F
100
AcDbEntity
  8
0
  6
Continuous
 62
     7
370
    25
100
AcDbCircle
 10
1267.3889218349
 20
88.8578471969
 30
0.0
 40
12.50000000000018
  0
CIRCLE
  5
358
330
1F
100
AcDbEntity
  8
0
  6
Continuous
 62
     7
370
    25
100
AcDbCircle
 10
437.3889218349
 20
88.8578471969
 30
0.0
 40
12.50000000000018
  0
CIRCLE
  5
359
330
1F
100
AcDbEntity
  8
0
  6
Continuous
 62
     7
370
    25
100
AcDbCircle
 10
497.3889218349
 20
88.8578471969
 30
0.0
 40
12.50000000000018
  0
CIRCLE
  5
35A
330
1F
100
AcDbEntity
  8
0
  6
Continuous
 62
     7
370
    25
100
AcDbCircle
 10
380.3889218349
 20
868.8578471969
 30
0.0
 40
81.50000000000011
  0
CIRCLE
  5
35B
330
1F
100
AcDbEntity
  8
0
  6
Continuous
 62
     7
370
    25
100
AcDbCircle
 10
660.3889218349
 20
1148.8578471969
 30
0.0
 40
81.5
  0
CIRCLE
  5
35C
330
1F
100
AcDbEntity
  8
0
  6
Continuous
 62
     7
370
    25
100
AcDbCircle
 10
1327.3889218349
 20
88.8578471969
 30
0.0
 40
12.50000000000018
  0
CIRCLE
  5
35D
330
1F
100
AcDbEntity
  8
0
  6
Continuous
 62
     7
370
    25
100
AcDbCircle
 10
380.3889218349
 20
1148.8578471969
 30
0.0
 40
81.5
  0
CIRCLE
  5
35E
330
1F
100
AcDbEntity
  8
0
  6
Continuous
 62
     7
370
    25
100
AcDbCircle
 10
1007.3889218349
 20
165.8578471969
 30
0.0
 40
81.50000000000014
  0
CIRCLE
  5
35F
330
1F
100
AcDbEntity
  8
0
  6
Continuous
 62
     7
370
    25
100
AcDbCircle
 10
1007.3889218349
 20
445.8578471969
 30
0.0
 40
81.50000000000011
  0
CIRCLE
  5
360
330
1F
100
AcDbEntity
  8
0
  6
Continuous
 62
     7
370
    25
100
AcDbCircle
 10
697.3889218349
 20
445.8578471969
 30
0.0
 40
81.50000000000011
  0
CIRCLE
  5
361
330
1F
100
AcDbEntity
  8
0
  6
Continuous
 62
     7
370
    25
100
AcDbCircle
 10
2073.3889218349
 20
868.8578471969
 30
0.0
 40
81.50000000000011
  0
CIRCLE
  5
362
330
1F
100
AcDbEntity
  8
0
  6
Continuous
 62
     7
370
    25
100
AcDbCircle
 10
1633.3889218349
 20
791.8578471969
 30
0.0
 40
12.50000000000023
  0
CIRCLE
  5
363
330
1F
100
AcDbEntity
  8
0
  6
Continuous
 62
     7
370
    25
100
AcDbCircle
 10
1433.3889218349
 20
1148.8578471969
 30
0.0
 40
81.5
  0
CIRCLE
  5
364
330
1F
100
AcDbEntity
  8
0
  6
Continuous
 62
     7
370
    25
100
AcDbCircle
 10
1753.3889218349
 20
1008.8578471969
 30
0.0
 40
106.5
  0
CIRCLE
  5
365
330
1F
100
AcDbEntity
  8
0
  6
Continuous
 62
     7
370
    25
100
AcDbCircle
 10
2426.3889218349
 20
791.8578471969
 30
0.0
 40
12.50000000000023
  0
CIRCLE
  5
366
330
1F
100
AcDbEntity
  8
0
  6
Continuous
 62
     7
370
    25
100
AcDbCircle
 10
2486.3889218349
 20
1008.8578471969
 30
0.0
 40
106.5
  0
CIRCLE
  5
367
330
1F
100
AcDbEntity
  8
0
  6
Continuous
 62
     7
370
    25
100
AcDbCircle
 10
1693.3889218349
 20
791.8578471969
 30
0.0
 40
12.50000000000023
  0
CIRCLE
  5
368
330
1F
100
AcDbEntity
  8
0
  6
Continuous
 62
     7
370
    25
100
AcDbCircle
 10
1813.3889218349
 20
791.8578471969
 30
0.0
 40
12.50000000000023
  0
CIRCLE
  5
369
330
1F
100
AcDbEntity
  8
0
  6
Continuous
 62
     7
370
    25
100
AcDbCircle
 10
840.3889218349
 20
791.8578471969
 30
0.0
 40
12.50000000000023
  0
CIRCLE
  5
36A
330
1F
100
AcDbEntity
  8
0
  6
Continuous
 62
     7
370
    25
100
AcDbCircle
 10
900.3889218349
 20
791.8578471969
 30
0.0
 40
12.50000000000023
  0
CIRCLE
  5
36B
330
1F
100
AcDbEntity
  8
0
  6
Continuous
 62
     7
370
    25
100
AcDbCircle
 10
660.3889218349
 20
868.8578471969
 30
0.0
 40
81.50000000000011
  0
CIRCLE
  5
36C
330
1F
100
AcDbEntity
  8
0
  6
Continuous
 62
     7
370
    25
100
AcDbCircle
 10
1020.3889218349
 20
1008.8578471969
 30
0.0
 40
106.5
  0
CIRCLE
  5
36D
330
1F
100
AcDbEntity
  8
0
  6
Continuous
 62
     7
370
    25
100
AcDbCircle
 10
1080.3889218349
 20
791.8578471969
 30
0.0
 40
12.50000000000023
  0
CIRCLE
  5
36E
330
1F
100
AcDbEntity
  8
0
  6
Continuous
 62
     7
370
    25
100
AcDbCircle
 10
1433.3889218349
 20
868.8578471969
 30
0.0
 40
81.50000000000011
  0
CIRCLE
  5
36F
330
1F
100
AcDbEntity
  8
0
  6
Continuous
 62
     7
370
    25
100
AcDbCircle
 10
960.3889218349
 20
791.8578471969
 30
0.0
 40
12.50000000000023
  0
CIRCLE
  5
370
330
1F
100
AcDbEntity
  8
0
  6
Continuous
 62
     7
370
    25
100
AcDbCircle
 10
1020.3889218349
 20
791.8578471969
 30
0.0
 40
12.50000000000023
  0
CIRCLE
  5
371
330
1F
100
AcDbEntity
  8
0
  6
Continuous
 62
     7
370
    25
100
AcDbCircle
 10
3307.3889218349
 20
3140.8578471969
 30
0.0
 40
106.5
  0
CIRCLE
  5
372
330
1F
100
AcDbEntity
  8
0
  6
Continuous
 62
     7
370
    25
100
AcDbCircle
 10
1846.3889218349
 20
3000.8578471969
 30
0.0
 40
12.50000000000045
  0
CIRCLE
  5
373
330
1F
100
AcDbEntity
  8
0
  6
Continuous
 62
     7
370
    25
100
AcDbCircle
 10
2579.3889218349
 20
3257.8578471969
 30
0.0
 40
81.5
  0
CIRCLE
  5
374
330
1F
100
AcDbEntity
  8
0
  6
Continuous
 62
     7
370
    25
100
AcDbCircle
 10
2166.3889218349
 20
3000.8578471969
 30
0.0
 40
12.50000000000045
  0
CIRCLE
  5
375
330
1F
100
AcDbEntity
  8
0
  6
Continuous
 62
     7
370
    25
100
AcDbCircle
 10
1846.3889218349
 20
3217.8578471969
 30
0.0
 40
81.49999999999955
  0
CIRCLE
  5
376
330
1F
100
AcDbEntity
  8
0
  6
Continuous
 62
     7
370
    25
100
AcDbCircle
 10
2839.3889218349
 20
2900.8578471969
 30
0.0
 40
12.50000000000045
  0
CIRCLE
  5
377
330
1F
100
AcDbEntity
  8
0
  6
Continuous
 62
     7
370
    25
100
AcDbCircle
 10
2899.3889218349
 20
3117.8578471969
 30
0.0
 40
106.5
  0
CIRCLE
  5
378
330
1F
100
AcDbEntity
  8
0
  6
Continuous
 62
     7
370
    25
100
AcDbCircle
 10
2899.3889218349
 20
2900.8578471969
 30
0.0
 40
12.5
  0
CIRCLE
  5
379
330
1F
100
AcDbEntity
  8
0
  6
Continuous
 62
     7
370
    25
100
AcDbCircle
 10
700.3889218349
 20
3257.8578471969
 30
0.0
 40
81.5
  0
CIRCLE
  5
37A
330
1F
100
AcDbEntity
  8
0
  6
Continuous
 62
     7
370
    25
100
AcDbCircle
 10
1113.3889218349
 20
3000.8578471969
 30
0.0
 40
12.50000000000045
  0
CIRCLE
  5
37B
330
1F
100
AcDbEntity
  8
0
  6
Continuous
 62
     7
370
    25
100
AcDbCircle
 10
380.3889218349
 20
2900.8578471969
 30
0.0
 40
12.5
  0
CIRCLE
  5
37C
330
1F
100
AcDbEntity
  8
0
  6
Continuous
 62
     7
370
    25
100
AcDbCircle
 10
380.3889218349
 20
3117.8578471969
 30
0.0
 40
106.5
  0
CIRCLE
  5
37D
330
1F
100
AcDbEntity
  8
0
  6
Continuous
 62
     7
370
    25
100
AcDbCircle
 10
1433.3889218349
 20
3000.8578471969
 30
0.0
 40
12.50000000000045
  0
CIRCLE
  5
37E
330
1F
100
AcDbEntity
  8
0
  6
Continuous
 62
     7
370
    25
100
AcDbCircle
 10
2166.3889218349
 20
3217.8578471969
 30
0.0
 40
106.5
  0
CIRCLE
  5
37F
330
1F
100
AcDbEntity
  8
0
  6
Continuous
 62
     7
370
    25
100
AcDbCircle
 10
1113.3889218349
 20
3217.8578471969
 30
0.0
 40
106.5
  0
CIRCLE
  5
380
330
1F
100
AcDbEntity
  8
0
  6
Continuous
 62
     7
370
    25
100
AcDbCircle
 10
1433.3889218349
 20
3217.8578471969
 30
0.0
 40
81.49999999999955
  0
CIRCLE
  5
381
330
1F
100
AcDbEntity
  8
0
  6
Continuous
 62
     7
370
    25
100
AcDbCircle
 10
2166.3889218349
 20
2197.8578471969
 30
0.0
 40
12.5
  0
CIRCLE
  5
382
330
1F
100
AcDbEntity
  8
0
  6
Continuous
 62
     7
370
    25
100
AcDbCircle
 10
2101.3889218349
 20
2197.8578471969
 30
0.0
 40
12.5
  0
CIRCLE
  5
383
330
1F
100
AcDbEntity
  8
0
  6
Continuous
 62
     7
370
    25
100
AcDbCircle
 10
2166.3889218349
 20
2554.8578471969
 30
0.0
 40
81.5
  0
CIRCLE
  5
384
330
1F
100
AcDbEntity
  8
0
  6
Continuous
 62
     7
370
    25
100
AcDbCircle
 10
2231.3889218349
 20
2197.8578471969
 30
0.0
 40
12.5
  0
CIRCLE
  5
385
330
1F
100
AcDbEntity
  8
0
  6
Continuous
 62
     7
370
    25
100
AcDbCircle
 10
1433.3889218349
 20
2554.8578471969
 30
0.0
 40
81.5
  0
CIRCLE
  5
386
330
1F
100
AcDbEntity
  8
0
  6
Continuous
 62
     7
370
    25
100
AcDbCircle
 10
1113.3889218349
 20
2414.8578471969
 30
0.0
 40
106.4999999999995
  0
CIRCLE
  5
387
330
1F
100
AcDbEntity
  8
0
  6
Continuous
 62
     7
370
    25
100
AcDbCircle
 10
1846.3889218349
 20
2414.8578471969
 30
0.0
 40
106.4999999999995
  0
CIRCLE
  5
388
330
1F
100
AcDbEntity
  8
0
  6
Continuous
 62
     7
370
    25
100
AcDbCircle
 10
1433.3889218349
 20
2274.8578471969
 30
0.0
 40
81.5
  0
CIRCLE
  5
389
330
1F
100
AcDbEntity
  8
0
  6
Continuous
 62
     7
370
    25
100
AcDbCircle
 10
3539.3889218349
 20
2514.8578471969
 30
0.0
 40
106.5000000000005
  0
CIRCLE
  5
38A
330
1F
100
AcDbEntity
  8
0
  6
Continuous
 62
     7
370
    25
100
AcDbCircle
 10
3539.3889218349
 20
2297.8578471969
 30
0.0
 40
12.5
  0
CIRCLE
  5
38B
330
1F
100
AcDbEntity
  8
0
  6
Continuous
 62
     7
370
    25
100
AcDbCircle
 10
3499.8889218349
 20
2900.8578471969
 30
0.0
 40
12.50000000000045
  0
CIRCLE
  5
38C
330
1F
100
AcDbEntity
  8
0
  6
Continuous
 62
     7
370
    25
100
AcDbCircle
 10
3564.8889218349
 20
2900.8578471969
 30
0.0
 40
12.50000000000045
  0
CIRCLE
  5
38D
330
1F
100
AcDbEntity
  8
0
  6
Continuous
 62
     7
370
    25
100
AcDbCircle
 10
2899.3889218349
 20
2297.8578471969
 30
0.0
 40
12.5
  0
CIRCLE
  5
38E
330
1F
100
AcDbEntity
  8
0
  6
Continuous
 62
     7
370
    25
100
AcDbCircle
 10
2486.3889218349
 20
2414.8578471969
 30
0.0
 40
106.4999999999995
  0
CIRCLE
  5
38F
330
1F
100
AcDbEntity
  8
0
  6
Continuous
 62
     7
370
    25
100
AcDbCircle
 10
3219.3889218349
 20
2514.8578471969
 30
0.0
 40
81.5
  0
CIRCLE
  5
390
330
1F
100
AcDbEntity
  8
0
  6
Continuous
 62
     7
370
    25
100
AcDbCircle
 10
2899.3889218349
 20
2514.8578471969
 30
0.0
 40
106.5000000000005
  0
CIRCLE
  5
391
330
1F
100
AcDbEntity
  8
0
  6
Continuous
 62
     7
370
    25
100
AcDbCircle
 10
793.3889218349
 20
3603.8578471969
 30
0.0
 40
12.5
  0
CIRCLE
  5
392
330
1F
100
AcDbEntity
  8
0
  6
Continuous
 62
     7
370
    25
100
AcDbCircle
 10
3219.3889218349
 20
2297.8578471969
 30
0.0
 40
12.5
  0
CIRCLE
  5
393
330
1F
100
AcDbEntity
  8
0
  6
Continuous
 62
     7
370
    25
100
AcDbCircle
 10
3737.3889218349
 20
1711.8578471969
 30
0.0
 40
106.5
  0
CIRCLE
  5
394
330
1F
100
AcDbEntity
  8
0
  6
Continuous
 62
     7
370
    25
100
AcDbCircle
 10
1873.3889218349
 20
791.8578471969
 30
0.0
 40
12.50000000000011
  0
CIRCLE
  5
395
330
1F
100
AcDbEntity
  8
0
  6
Continuous
 62
     7
370
    25
100
AcDbCircle
 10
1797.3889218349
 20
1494.8578471969
 30
0.0
 40
12.50000000000023
  0
CIRCLE
  5
396
330
1F
100
AcDbEntity
  8
0
  6
Continuous
 62
     7
370
    25
100
AcDbCircle
 10
3737.3889218349
 20
1494.8578471969
 30
0.0
 40
12.50000000000023
  0
CIRCLE
  5
397
330
1F
100
AcDbEntity
  8
0
  6
Continuous
 62
     7
370
    25
100
AcDbCircle
 10
1619.3889218349
 20
3603.8578471969
 30
0.0
 40
12.49999999999955
  0
CIRCLE
  5
398
330
1F
100
AcDbEntity
  8
0
  6
Continuous
 62
     7
370
    25
100
AcDbCircle
 10
380.3889218349
 20
3960.8578471969
 30
0.0
 40
106.4999999999995
  0
CIRCLE
  5
399
330
1F
100
AcDbEntity
  8
0
  6
Continuous
 62
     7
370
    25
100
AcDbCircle
 10
380.3889218349
 20
3603.8578471969
 30
0.0
 40
12.49999999999955
  0
CIRCLE
  5
39A
330
1F
100
AcDbEntity
  8
0
  6
Continuous
 62
     7
370
    25
100
AcDbCircle
 10
1206.3889218349
 20
3603.8578471969
 30
0.0
 40
12.5
  0
CIRCLE
  5
39B
330
1F
100
AcDbEntity
  8
0
  6
Continuous
 62
     7
370
    25
100
AcDbCircle
 10
1619.3889218349
 20
3820.8578471969
 30
0.0
 40
106.5
  0
CIRCLE
  5
39C
330
1F
100
AcDbEntity
  8
0
  6
Continuous
 62
     7
370
    25
100
AcDbCircle
 10
440.3889218349
 20
2900.8578471969
 30
0.0
 40
12.5
  0
CIRCLE
  5
39D
330
1F
100
AcDbEntity
  8
0
  6
Continuous
 62
     7
370
    25
100
AcDbCircle
 10
793.3889218349
 20
3820.8578471969
 30
0.0
 40
81.5
  0
CIRCLE
  5
39E
330
1F
100
AcDbEntity
  8
0
  6
Continuous
 62
     7
370
    25
100
AcDbCircle
 10
1206.3889218349
 20
3820.8578471969
 30
0.0
 40
81.5
  0
CIRCLE
  5
39F
330
1F
100
AcDbEntity
  8
0
  6
Continuous
 62
     7
370
    25
100
AcDbCircle
 10
377.3889218349
 20
88.8578471969
 30
0.0
 40
12.50000000000018
  0
CIRCLE
  5
3A0
330
1F
100
AcDbEntity
  8
0
  6
Continuous
 62
     7
370
    25
100
AcDbCircle
 10
377.3889218349
 20
305.8578471969
 30
0.0
 40
106.5
  0
CIRCLE
  5
3A1
330
1F
100
AcDbEntity
  8
0
  6
Continuous
 62
     7
370
    25
100
AcDbCircle
 10
1753.3889218349
 20
791.8578471969
 30
0.0
 40
12.50000000000023
  0
CIRCLE
  5
3A2
330
1F
100
AcDbEntity
  8
0
  6
Continuous
 62
     7
370
    25
100
AcDbCircle
 10
2073.3889218349
 20
1148.8578471969
 30
0.0
 40
81.50000000000023
  0
CIRCLE
  5
3A3
330
1F
100
AcDbEntity
  8
0
  6
Continuous
 62
     7
370
    25
100
AcDbCircle
 10
1327.3889218349
 20
305.8578471969
 30
0.0
 40
106.5
  0
CIRCLE
  5
3A4
330
1F
100
AcDbEntity
  8
0
  6
Continuous
 62
     7
370
    25
100
AcDbCircle
 10
3757.3889218349
 20
3140.8578471969
 30
0.0
 40
106.5
  0
CIRCLE
  5
3A5
330
1F
100
AcDbEntity
  8
0
  6
Continuous
 62
     7
370
    25
100
AcDbCircle
 10
377.3889218349
 20
1811.8578471969
 30
0.0
 40
106.5
  0
CIRCLE
  5
3A6
330
1F
100
AcDbEntity
  8
0
  6
Continuous
 62
     7
370
    25
100
AcDbCircle
 10
1327.3889218349
 20
1811.8578471969
 30
0.0
 40
106.5
  0
CIRCLE
  5
3A7
330
1F
100
AcDbEntity
  8
0
  6
Continuous
 62
     7
370
    25
100
AcDbCircle
 10
2787.3889218349
 20
1711.8578471969
 30
0.0
 40
106.5
  0
LINE
  5
3A8
330
1F
100
AcDbEntity
  8
0
  6
CENTERX2
 62
    30
370
    18
100
AcDbLine
 10
1430.8889218349
 20
557.3578471969
 30
0.0
 11
1430.8889218349
 21
54.3578471969
 31
0.0
  0
LINE
  5
3A9
330
1F
100
AcDbEntity
  8
0
  6
CENTERX2
 62
    30
370
    18
100
AcDbLine
 10
273.8889218349
 20
54.3578471969
 30
0.0
 11
1430.8889218349
 21
54.3578471969
 31
0.0
  0
LINE
  5
3AA
330
1F
100
AcDbEntity
  8
0
  6
CENTERX2
 62
    30
370
    18
100
AcDbLine
 10
273.8889218349
 20
557.3578471969
 30
0.0
 11
273.8889218349
 21
54.3578471969
 31
0.0
  0
LINE
  5
3AB
330
1F
100
AcDbEntity
  8
0
  6
CENTERX2
 62
    30
370
    18
100
AcDbLine
 10
273.8889218349
 20
557.3578471969
 30
0.0
 11
1430.8889218349
 21
557.3578471969
 31
0.0
  0
LINE
  5
3AC
330
1F
100
AcDbEntity
  8
0
  6
CENTERX2
 62
    30
370
    18
100
AcDbLine
 10
3232.8889218349
 20
1260.3578471969
 30
0.0
 11
3232.8889218349
 21
757.3578471969
 31
0.0
  0
LINE
  5
3AD
330
1F
100
AcDbEntity
  8
0
  6
CENTERX2
 62
    30
370
    18
100
AcDbLine
 10
2379.8889218349
 20
757.3578471969
 30
0.0
 11
3232.8889218349
 21
757.3578471969
 31
0.0
  0
LINE
  5
3AE
330
1F
100
AcDbEntity
  8
0
  6
CENTERX2
 62
    30
370
    18
100
AcDbLine
 10
2379.8889218349
 20
1260.3578471969
 30
0.0
 11
2379.8889218349
 21
757.3578471969
 31
0.0
  0
LINE
  5
3AF
330
1F
100
AcDbEntity
  8
0
  6
CENTERX2
 62
    30
370
    18
100
AcDbLine
 10
2379.8889218349
 20
1260.3578471969
 30
0.0
 11
3232.8889218349
 21
1260.3578471969
 31
0.0
  0
LINE
  5
3B0
330
1F
100
AcDbEntity
  8
0
  6
CENTERX2
 62
    30
370
    18
100
AcDbLine
 10
2179.8889218349
 20
1260.3578471969
 30
0.0
 11
2179.8889218349
 21
757.3578471969
 31
0.0
  0
LINE
  5
3B1
330
1F
100
AcDbEntity
  8
0
  6
CENTERX2
 62
    30
370
    18
100
AcDbLine
 10
1326.8889218349
 20
757.3578471969
 30
0.0
 11
2179.8889218349
 21
757.3578471969
 31
0.0
  0
LINE
  5
3B2
330
1F
100
AcDbEntity
  8
0
  6
CENTERX2
 62
    30
370
    18
100
AcDbLine
 10
1326.8889218349
 20
1260.3578471969
 30
0.0
 11
2179.8889218349
 21
1260.3578471969
 31
0.0
  0
LINE
  5
3B3
330
1F
100
AcDbEntity
  8
0
  6
CENTERX2
 62
    30
370
    18
100
AcDbLine
 10
1326.8889218349
 20
1260.3578471969
 30
0.0
 11
1326.8889218349
 21
757.3578471969
 31
0.0
  0
LINE
  5
3B4
330
1F
100
AcDbEntity
  8
0
  6
CENTERX2
 62
    30
370
    18
100
AcDbLine
 10
1126.8889218349
 20
1260.3578471969
 30
0.0
 11
1126.8889218349
 21
757.3578471969
 31
0.0
  0
LINE
  5
3B5
330
1F
100
AcDbEntity
  8
0
  6
CENTERX2
 62
    30
370
    18
100
AcDbLine
 10
273.8889218349
 20
757.3578471969
 30
0.0
 11
1126.8889218349
 21
757.3578471969
 31
0.0
  0
LINE
  5
3B6
330
1F
100
AcDbEntity
  8
0
  6
CENTERX2
 62
    30
370
    18
100
AcDbLine
 10
273.8889218349
 20
1260.3578471969
 30
0.0
 11
1126.8889218349
 21
1260.3578471969
 31
0.0
  0
LINE
  5
3B7
330
1F
100
AcDbEntity
  8
0
  6
CENTERX2
 62
    30
370
    18
100
AcDbLine
 10
273.8889218349
 20
1260.3578471969
 30
0.0
 11
273.8889218349
 21
757.3578471969
 31
0.0
  0
LINE
  5
3B8
330
1F
100
AcDbEntity
  8
0
  6
CENTERX2
 62
    30
370
    18
100
AcDbLine
 10
1430.8889218349
 20
1963.3578471969
 30
0.0
 11
1430.8889218349
 21
1560.3578471969
 31
0.0
  0
LINE
  5
3B9
330
1F
100
AcDbEntity
  8
0
  6
CENTERX2
 62
    30
370
    18
100
AcDbLine
 10
273.8889218349
 20
1963.3578471969
 30
0.0
 11
1430.8889218349
 21
1963.3578471969
 31
0.0
  0
LINE
  5
3BA
330
1F
100
AcDbEntity
  8
0
  6
CENTERX2
 62
    30
370
    18
100
AcDbLine
 10
273.8889218349
 20
1560.3578471969
 30
0.0
 11
273.8889218349
 21
1963.3578471969
 31
0.0
  0
LINE
  5
3BB
330
1F
100
AcDbEntity
  8
0
  6
CENTERX2
 62
    30
370
    18
100
AcDbLine
 10
1430.8889218349
 20
1560.3578471969
 30
0.0
 11
273.8889218349
 21
1560.3578471969
 31
0.0
  0
LINE
  5
3BC
330
1F
100
AcDbEntity
  8
0
  6
CENTERX2
 62
    30
370
    18
100
AcDbLine
 10
1630.8889218349
 20
1963.3578471969
 30
0.0
 11
1630.8889218349
 21
1460.3578471969
 31
0.0
  0
LINE
  5
3BD
330
1F
100
AcDbEntity
  8
0
  6
CENTERX2
 62
    30
370
    18
100
AcDbLine
 10
1630.8889218349
 20
1460.3578471969
 30
0.0
 11
2483.8889218349
 21
1460.3578471969
 31
0.0
  0
LINE
  5
3BE
330
1F
100
AcDbEntity
  8
0
  6
CENTERX2
 62
    30
370
    18
100
AcDbLine
 10
1630.8889218349
 20
1963.3578471969
 30
0.0
 11
2483.8889218349
 21
1963.3578471969
 31
0.0
  0
LINE
  5
3BF
330
1F
100
AcDbEntity
  8
0
  6
CENTERX2
 62
    30
370
    18
100
AcDbLine
 10
2483.8889218349
 20
1963.3578471969
 30
0.0
 11
2483.8889218349
 21
1460.3578471969
 31
0.0
  0
LINE
  5
3C0
330
1F
100
AcDbEntity
  8
0
  6
CENTERX2
 62
    30
370
    18
100
AcDbLine
 10
2683.8889218349
 20
1963.3578471969
 30
0.0
 11
2683.8889218349
 21
1460.3578471969
 31
0.0
  0
LINE
  5
3C1
330
1F
100
AcDbEntity
  8
0
  6
CENTERX2
 62
    30
370
    18
100
AcDbLine
 10
3840.8889218349
 20
1963.3578471969
 30
0.0
 11
3840.8889218349
 21
1460.3578471969
 31
0.0
  0
LINE
  5
3C2
330
1F
100
AcDbEntity
  8
0
  6
CENTERX2
 62
    30
370
    18
100
AcDbLine
 10
2683.8889218349
 20
1460.3578471969
 30
0.0
 11
3840.8889218349
 21
1460.3578471969
 31
0.0
  0
LINE
  5
3C3
330
1F
100
AcDbEntity
  8
0
  6
CENTERX2
 62
    30
370
    18
100
AcDbLine
 10
2683.8889218349
 20
1963.3578471969
 30
0.0
 11
3840.8889218349
 21
1963.3578471969
 31
0.0
  0
LINE
  5
3C4
330
1F
100
AcDbEntity
  8
0
  6
CENTERX2
 62
    30
370
    18
100
AcDbLine
 10
3645.8889218349
 20
2666.3578471969
 30
0.0
 11
3645.8889218349
 21
2263.3578471969
 31
0.0
  0
LINE
  5
3C5
330
1F
100
AcDbEntity
  8
0
  6
CENTERX2
 62
    30
370
    18
100
AcDbLine
 10
2792.8889218349
 20
2263.3578471969
 30
0.0
 11
3645.8889218349
 21
2263.3578471969
 31
0.0
  0
LINE
  5
3C6
330
1F
100
AcDbEntity
  8
0
  6
CENTERX2
 62
    30
370
    18
100
AcDbLine
 10
2792.8889218349
 20
2666.3578471969
 30
0.0
 11
2792.8889218349
 21
2263.3578471969
 31
0.0
  0
LINE
  5
3C7
330
1F
100
AcDbEntity
  8
0
  6
CENTERX2
 62
    30
370
    18
100
AcDbLine
 10
2792.8889218349
 20
2666.3578471969
 30
0.0
 11
3645.8889218349
 21
2666.3578471969
 31
0.0
  0
LINE
  5
3C8
330
1F
100
AcDbEntity
  8
0
  6
CENTERX2
 62
    30
370
    18
100
AcDbLine
 10
2592.8889218349
 20
2666.3578471969
 30
0.0
 11
2592.8889218349
 21
2163.3578471969
 31
0.0
  0
LINE
  5
3C9
330
1F
100
AcDbEntity
  8
0
  6
CENTERX2
 62
    30
370
    18
100
AcDbLine
 10
1739.8889218349
 20
2163.3578471969
 30
0.0
 11
2592.8889218349
 21
2163.3578471969
 31
0.0
  0
LINE
  5
3CA
330
1F
100
AcDbEntity
  8
0
  6
CENTERX2
 62
    30
370
    18
100
AcDbLine
 10
1739.8889218349
 20
2666.3578471969
 30
0.0
 11
1739.8889218349
 21
2163.3578471969
 31
0.0
  0
LINE
  5
3CB
330
1F
100
AcDbEntity
  8
0
  6
CENTERX2
 62
    30
370
    18
100
AcDbLine
 10
1739.8889218349
 20
2666.3578471969
 30
0.0
 11
2592.8889218349
 21
2666.3578471969
 31
0.0
  0
LINE
  5
3CC
330
1F
100
AcDbEntity
  8
0
  6
CENTERX2
 62
    30
370
    18
100
AcDbLine
 10
1006.8889218349
 20
2163.3578471969
 30
0.0
 11
1539.8889218349
 21
2163.3578471969
 31
0.0
  0
LINE
  5
3CD
330
1F
100
AcDbEntity
  8
0
  6
CENTERX2
 62
    30
370
    18
100
AcDbLine
 10
1539.8889218349
 20
2666.3578471969
 30
0.0
 11
1539.8889218349
 21
2163.3578471969
 31
0.0
  0
LINE
  5
3CE
330
1F
100
AcDbEntity
  8
0
  6
CENTERX2
 62
    30
370
    18
100
AcDbLine
 10
1006.8889218349
 20
2666.3578471969
 30
0.0
 11
1006.8889218349
 21
2163.3578471969
 31
0.0
  0
LINE
  5
3CF
330
1F
100
AcDbEntity
  8
0
  6
CENTERX2
 62
    30
370
    18
100
AcDbLine
 10
1006.8889218349
 20
2666.3578471969
 30
0.0
 11
1539.8889218349
 21
2666.3578471969
 31
0.0
  0
LINE
  5
3D0
330
1F
100
AcDbEntity
  8
0
  6
CENTERX2
 62
    30
370
    18
100
AcDbLine
 10
806.8889218349
 20
2666.3578471969
 30
0.0
 11
806.8889218349
 21
2163.3578471969
 31
0.0
  0
LINE
  5
3D1
330
1F
100
AcDbEntity
  8
0
  6
CENTERX2
 62
    30
370
    18
100
AcDbLine
 10
273.8889218349
 20
2163.3578471969
 30
0.0
 11
806.8889218349
 21
2163.3578471969
 31
0.0
  0
LINE
  5
3D2
330
1F
100
AcDbEntity
  8
0
  6
CENTERX2
 62
    30
370
    18
100
AcDbLine
 10
273.8889218349
 20
2666.3578471969
 30
0.0
 11
806.8889218349
 21
2666.3578471969
 31
0.0
  0
LINE
  5
3D3
330
1F
100
AcDbEntity
  8
0
  6
CENTERX2
 62
    30
370
    18
100
AcDbLine
 10
273.8889218349
 20
2666.3578471969
 30
0.0
 11
273.8889218349
 21
2163.3578471969
 31
0.0
  0
LINE
  5
3D4
330
1F
100
AcDbEntity
  8
0
  6
CENTERX2
 62
    30
370
    18
100
AcDbLine
 10
3858.8889218349
 20
3369.3578471969
 30
0.0
 11
3858.8889218349
 21
2866.3578471969
 31
0.0
  0
LINE
  5
3D5
330
1F
100
AcDbEntity
  8
0
  6
CENTERX2
 62
    30
370
    18
100
AcDbLine
 10
3205.8889218349
 20
2866.3578471969
 30
0.0
 11
3858.8889218349
 21
2866.3578471969
 31
0.0
  0
LINE
  5
3D6
330
1F
100
AcDbEntity
  8
0
  6
CENTERX2
 62
    30
370
    18
100
AcDbLine
 10
3205.8889218349
 20
3369.3578471969
 30
0.0
 11
3205.8889218349
 21
2866.3578471969
 31
0.0
  0
LINE
  5
3D7
330
1F
100
AcDbEntity
  8
0
  6
CENTERX2
 62
    30
370
    18
100
AcDbLine
 10
3205.8889218349
 20
3369.3578471969
 30
0.0
 11
3858.8889218349
 21
3369.3578471969
 31
0.0
  0
LINE
  5
3D8
330
1F
100
AcDbEntity
  8
0
  6
CENTERX2
 62
    30
370
    18
100
AcDbLine
 10
3005.8889218349
 20
3369.3578471969
 30
0.0
 11
3005.8889218349
 21
2866.3578471969
 31
0.0
  0
LINE
  5
3D9
330
1F
100
AcDbEntity
  8
0
  6
CENTERX2
 62
    30
370
    18
100
AcDbLine
 10
2472.8889218349
 20
2866.3578471969
 30
0.0
 11
3005.8889218349
 21
2866.3578471969
 31
0.0
  0
LINE
  5
3DA
330
1F
100
AcDbEntity
  8
0
  6
CENTERX2
 62
    30
370
    18
100
AcDbLine
 10
2472.8889218349
 20
3369.3578471969
 30
0.0
 11
2472.8889218349
 21
2866.3578471969
 31
0.0
  0
LINE
  5
3DB
330
1F
100
AcDbEntity
  8
0
  6
CENTERX2
 62
    30
370
    18
100
AcDbLine
 10
2472.8889218349
 20
3369.3578471969
 30
0.0
 11
3005.8889218349
 21
3369.3578471969
 31
0.0
  0
LINE
  5
3DC
330
1F
100
AcDbEntity
  8
0
  6
CENTERX2
 62
    30
370
    18
100
AcDbLine
 10
2272.8889218349
 20
3369.3578471969
 30
0.0
 11
2272.8889218349
 21
2966.3578471969
 31
0.0
  0
LINE
  5
3DD
330
1F
100
AcDbEntity
  8
0
  6
CENTERX2
 62
    30
370
    18
100
AcDbLine
 10
1739.8889218349
 20
2966.3578471969
 30
0.0
 11
2272.8889218349
 21
2966.3578471969
 31
0.0
  0
LINE
  5
3DE
330
1F
100
AcDbEntity
  8
0
  6
CENTERX2
 62
    30
370
    18
100
AcDbLine
 10
1739.8889218349
 20
3369.3578471969
 30
0.0
 11
1739.8889218349
 21
2966.3578471969
 31
0.0
  0
LINE
  5
3DF
330
1F
100
AcDbEntity
  8
0
  6
CENTERX2
 62
    30
370
    18
100
AcDbLine
 10
1739.8889218349
 20
3369.3578471969
 30
0.0
 11
2272.8889218349
 21
3369.3578471969
 31
0.0
  0
LINE
  5
3E0
330
1F
100
AcDbEntity
  8
0
  6
CENTERX2
 62
    30
370
    18
100
AcDbLine
 10
1539.8889218349
 20
3369.3578471969
 30
0.0
 11
1539.8889218349
 21
2966.3578471969
 31
0.0
  0
LINE
  5
3E1
330
1F
100
AcDbEntity
  8
0
  6
CENTERX2
 62
    30
370
    18
100
AcDbLine
 10
1006.8889218349
 20
2966.3578471969
 30
0.0
 11
1539.8889218349
 21
2966.3578471969
 31
0.0
  0
LINE
  5
3E2
330
1F
100
AcDbEntity
  8
0
  6
CENTERX2
 62
    30
370
    18
100
AcDbLine
 10
1006.8889218349
 20
3369.3578471969
 30
0.0
 11
1539.8889218349
 21
3369.3578471969
 31
0.0
  0
LINE
  5
3E3
330
1F
100
AcDbEntity
  8
0
  6
CENTERX2
 62
    30
370
    18
100
AcDbLine
 10
1006.8889218349
 20
3369.3578471969
 30
0.0
 11
1006.8889218349
 21
2966.3578471969
 31
0.0
  0
LINE
  5
3E4
330
1F
100
AcDbEntity
  8
0
  6
CENTERX2
 62
    30
370
    18
100
AcDbLine
 10
273.8889218349
 20
2866.3578471969
 30
0.0
 11
806.8889218349
 21
2866.3578471969
 31
0.0
  0
LINE
  5
3E5
330
1F
100
AcDbEntity
  8
0
  6
CENTERX2
 62
    30
370
    18
100
AcDbLine
 10
806.8889218349
 20
3369.3578471969
 30
0.0
 11
806.8889218349
 21
2866.3578471969
 31
0.0
  0
LINE
  5
3E6
330
1F
100
AcDbEntity
  8
0
  6
CENTERX2
 62
    30
370
    18
100
AcDbLine
 10
273.8889218349
 20
3369.3578471969
 30
0.0
 11
273.8889218349
 21
2866.3578471969
 31
0.0
  0
LINE
  5
3E7
330
1F
100
AcDbEntity
  8
0
  6
CENTERX2
 62
    30
370
    18
100
AcDbLine
 10
273.8889218349
 20
3369.3578471969
 30
0.0
 11
806.8889218349
 21
3369.3578471969
 31
0.0
  0
LINE
  5
3E8
330
1F
100
AcDbEntity
  8
0
  6
CENTERX2
 62
    30
370
    18
100
AcDbLine
 10
1725.8889218349
 20
4072.3578471969
 30
0.0
 11
1725.8889218349
 21
3569.3578471969
 31
0.0
  0
LINE
  5
3E9
330
1F
100
AcDbEntity
  8
0
  6
CENTERX2
 62
    30
370
    18
100
AcDbLine
 10
1512.8889218349
 20
4072.3578471969
 30
0.0
 11
1725.8889218349
 21
4072.3578471969
 31
0.0
  0
LINE
  5
3EA
330
1F
100
AcDbEntity
  8
0
  6
CENTERX2
 62
    30
370
    18
100
AcDbLine
 10
1512.8889218349
 20
4072.3578471969
 30
0.0
 11
1512.8889218349
 21
3569.3578471969
 31
0.0
  0
LINE
  5
3EB
330
1F
100
AcDbEntity
  8
0
  6
CENTERX2
 62
    30
370
    18
100
AcDbLine
 10
1512.8889218349
 20
3569.3578471969
 30
0.0
 11
1725.8889218349
 21
3569.3578471969
 31
0.0
  0
LINE
  5
3EC
330
1F
100
AcDbEntity
  8
0
  6
CENTERX2
 62
    30
370
    18
100
AcDbLine
 10
1099.8889218349
 20
3569.3578471969
 30
0.0
 11
1312.8889218349
 21
3569.3578471969
 31
0.0
  0
LINE
  5
3ED
330
1F
100
AcDbEntity
  8
0
  6
CENTERX2
 62
    30
370
    18
100
AcDbLine
 10
1312.8889218349
 20
4072.3578471969
 30
0.0
 11
1312.8889218349
 21
3569.3578471969
 31
0.0
  0
LINE
  5
3EE
330
1F
100
AcDbEntity
  8
0
  6
CENTERX2
 62
    30
370
    18
100
AcDbLine
 10
1099.8889218349
 20
4072.3578471969
 30
0.0
 11
1099.8889218349
 21
3569.3578471969
 31
0.0
  0
LINE
  5
3EF
330
1F
100
AcDbEntity
  8
0
  6
CENTERX2
 62
    30
370
    18
100
AcDbLine
 10
1099.8889218349
 20
4072.3578471969
 30
0.0
 11
1312.8889218349
 21
4072.3578471969
 31
0.0
  0
LINE
  5
3F0
330
1F
100
AcDbEntity
  8
0
  6
CENTERX2
 62
    30
370
    18
100
AcDbLine
 10
686.8889218349
 20
3569.3578471969
 30
0.0
 11
899.8889218349
 21
3569.3578471969
 31
0.0
  0
LINE
  5
3F1
330
1F
100
AcDbEntity
  8
0
  6
CENTERX2
 62
    30
370
    18
100
AcDbLine
 10
899.8889218349
 20
4072.3578471969
 30
0.0
 11
899.8889218349
 21
3569.3578471969
 31
0.0
  0
LINE
  5
3F2
330
1F
100
AcDbEntity
  8
0
  6
CENTERX2
 62
    30
370
    18
100
AcDbLine
 10
686.8889218349
 20
4072.3578471969
 30
0.0
 11
899.8889218349
 21
4072.3578471969
 31
0.0
  0
LINE
  5
3F3
330
1F
100
AcDbEntity
  8
0
  6
CENTERX2
 62
    30
370
    18
100
AcDbLine
 10
686.8889218349
 20
4072.3578471969
 30
0.0
 11
686.8889218349
 21
3569.3578471969
 31
0.0
  0
LINE
  5
3F4
330
1F
100
AcDbEntity
  8
0
  6
CENTERX2
 62
    30
370
    18
100
AcDbLine
 10
486.8889218349
 20
4072.3578471969
 30
0.0
 11
486.8889218349
 21
3569.3578471969
 31
0.0
  0
LINE
  5
3F5
330
1F
100
AcDbEntity
  8
0
  6
CENTERX2
 62
    30
370
    18
100
AcDbLine
 10
273.8889218349
 20
3569.3578471969
 30
0.0
 11
486.8889218349
 21
3569.3578471969
 31
0.0
  0
LINE
  5
3F6
330
1F
100
AcDbEntity
  8
0
  6
CENTERX2
 62
    30
370
    18
100
AcDbLine
 10
273.8889218349
 20
4072.3578471969
 30
0.0
 11
273.8889218349
 21
3569.3578471969
 31
0.0
  0
LINE
  5
3F7
330
1F
100
AcDbEntity
  8
0
  6
CENTERX2
 62
    30
370
    18
100
AcDbLine
 10
273.8889218349
 20
4072.3578471969
 30
0.0
 11
486.8889218349
 21
4072.3578471969
 31
0.0
  0
CIRCLE
  5
3F8
330
1F
100
AcDbEntity
  8
0
  6
Continuous
 62
     7
370
    18
100
AcDbCircle
 10
1327.3889218349
 20
1594.8578471969
 30
0.0
 40
12.49999999999998
  0
CIRCLE
  5
3F9
330
1F
100
AcDbEntity
  8
0
  6
Continuous
 62
     7
370
    18
100
AcDbCircle
 10
1007.3889218349
 20
1594.8578471969
 30
0.0
 40
12.50000000000009
  0
CIRCLE
  5
3FA
330
1F
100
AcDbEntity
  8
0
  6
Continuous
 62
     7
370
    18
100
AcDbCircle
 10
697.3889218349
 20
1594.8578471969
 30
0.0
 40
12.50000000000031
  0
CIRCLE
  5
3FB
330
1F
100
AcDbEntity
  8
0
  6
Continuous
 62
     7
370
    18
100
AcDbCircle
 10
377.3889218349
 20
1594.8578471969
 30
0.0
 40
12.50000000000004
  0
MTEXT
  5
3FC
330
1F
100
AcDbEntity
  8
0
  6
Continuous
 62
     7
370
     0
100
AcDbMText
 10
3753.0434335927
 20
138.429671837
 30
0.0
 40
26.4583333333
 41
0.0
 71
     1
 72
     1
  1
24-4-2026
  7
SLDTEXTSTYLE0
 73
     1
 44
1.0
  0
MTEXT
  5
3FD
330
1F
100
AcDbEntity
  8
0
  6
Continuous
 62
     7
370
    18
100
AcDbMText
 10
3753.0434335927
 20
96.6054836399
 30
0.0
 40
26.4583333333
 41
0.0
 71
     1
 72
     1
  1
REF. 2026-4.1
  7
SLDTEXTSTYLE0
 73
     1
 44
1.0
  0
LINE
  5
3FE
330
1F
100
AcDbEntity
  8
0
  6
Continuous
 62
     7
370
    18
100
AcDbLine
 10
3391.6342085966
 20
3984.8818912491
 30
0.0
 11
3473.2639065345
 21
3984.8818912491
 31
0.0
  0
LINE
  5
3FF
330
1F
100
AcDbEntity
  8
0
  6
Continuous
 62
     7
370
    18
100
AcDbLine
 10
3507.4477056709
 20
4081.5406888073
 30
0.0
 11
3424.8553238667
 21
4081.5406888073
 31
0.0
  0
LINE
  5
400
330
1F
100
AcDbEntity
  8
0
  6
Continuous
 62
     7
370
    18
100
AcDbLine
 10
3424.8553238667
 20
4081.5406888073
 30
0.0
 11
3391.6342085966
 21
3984.8818912491
 31
0.0
  0
LINE
  5
401
330
1F
100
AcDbEntity
  8
0
  6
Continuous
 62
     7
370
    18
100
AcDbLine
 10
3285.1663238667
 20
3984.8818912491
 30
0.0
 11
3354.5794095327
 21
3984.8818912491
 31
0.0
  0
LINE
  5
402
330
1F
100
AcDbEntity
  8
0
  6
Continuous
 62
     7
370
    18
100
AcDbLine
 10
3354.5794095327
 20
3984.8818912491
 30
0.0
 11
3395.8381084904
 21
4104.9259882165
 31
0.0
  0
LINE
  5
403
330
1F
100
AcDbEntity
  8
0
  6
Continuous
 62
     7
370
    18
100
AcDbLine
 10
3395.8381084904
 20
4104.9259882165
 30
0.0
 11
3399.9397083868
 21
4116.8594219431
 31
0.0
  0
LINE
  5
404
330
1F
100
AcDbEntity
  8
0
  6
Continuous
 62
     7
370
    18
100
AcDbLine
 10
3399.9397083868
 20
4116.8594219431
 30
0.0
 11
3509.225805626
 21
4116.8594219431
 31
0.0
  0
LINE
  5
405
330
1F
100
AcDbEntity
  8
0
  6
Continuous
 62
     7
370
    18
100
AcDbLine
 10
3571.292804058
 20
4037.09748993
 30
0.0
 11
3571.1566040615
 21
4035.8554899614
 31
0.0
  0
LINE
  5
406
330
1F
100
AcDbEntity
  8
0
  6
Continuous
 62
     7
370
    18
100
AcDbLine
 10
3474.4960065033
 20
3949.5634921413
 30
0.0
 11
3379.4950089033
 21
3949.5634921413
 31
0.0
  0
LINE
  5
407
330
1F
100
AcDbEntity
  8
0
  6
Continuous
 62
     7
370
    18
100
AcDbLine
 10
3379.4950089033
 20
3949.5634921413
 30
0.0
 11
3357.4477094602
 21
3885.4147937618
 31
0.0
  0
LINE
  5
408
330
1F
100
AcDbEntity
  8
0
  6
Continuous
 62
     7
370
    18
100
AcDbLine
 10
3357.4477094602
 20
3885.4147937618
 30
0.0
 11
4046.2434920598
 21
3885.4147937618
 31
0.0
  0
LINE
  5
409
330
1F
100
AcDbEntity
  8
0
  6
Continuous
 62
     7
370
    18
100
AcDbLine
 10
4046.2434920598
 20
3885.4147937618
 30
0.0
 11
4057.8420917668
 21
3852.5341945925
 31
0.0
  0
LINE
  5
40A
330
1F
100
AcDbEntity
  8
0
  6
Continuous
 62
     7
370
    18
100
AcDbLine
 10
4057.8420917668
 20
3852.5341945925
 30
0.0
 11
3309.4636106724
 21
3852.5341945925
 31
0.0
  0
LINE
  5
40B
330
1F
100
AcDbEntity
  8
0
  6
Continuous
 62
     7
370
    18
100
AcDbLine
 10
3309.4636106724
 20
3852.5341945925
 30
0.0
 11
3342.4417098393
 21
3949.5634921413
 31
0.0
  0
LINE
  5
40C
330
1F
100
AcDbEntity
  8
0
  6
Continuous
 62
     7
370
    18
100
AcDbLine
 10
3342.4417098393
 20
3949.5634921413
 30
0.0
 11
3296.7577109934
 21
3949.5634921413
 31
0.0
  0
LINE
  5
40D
330
1F
100
AcDbEntity
  8
0
  6
Continuous
 62
     7
370
    18
100
AcDbLine
 10
3296.7577109934
 20
3949.5634921413
 30
0.0
 11
3285.1663238667
 21
3984.8818912491
 31
0.0
  0
LINE
  5
40E
330
1F
100
AcDbEntity
  8
0
  6
Continuous
 62
     7
370
    18
100
AcDbLine
 10
3554.946704471
 20
3906.8914932193
 30
0.0
 11
3627.4900026384
 21
4116.8594219431
 31
0.0
  0
LINE
  5
40F
330
1F
100
AcDbEntity
  8
0
  6
Continuous
 62
     7
370
    18
100
AcDbLine
 10
3627.4900026384
 20
4116.8594219431
 30
0.0
 11
3664.4686017042
 21
4116.8594219431
 31
0.0
  0
LINE
  5
410
330
1F
100
AcDbEntity
  8
0
  6
Continuous
 62
     7
370
    18
100
AcDbLine
 10
3664.4686017042
 20
4116.8594219431
 30
0.0
 11
3591.9250035368
 21
3906.8914932193
 31
0.0
  0
LINE
  5
411
330
1F
100
AcDbEntity
  8
0
  6
Continuous
 62
     7
370
    18
100
AcDbLine
 10
3591.9250035368
 20
3906.8914932193
 30
0.0
 11
3554.946704471
 21
3906.8914932193
 31
0.0
  0
LINE
  5
412
330
1F
100
AcDbEntity
  8
0
  6
Continuous
 62
     7
370
    18
100
AcDbLine
 10
3708.298000597
 20
3906.8914932193
 30
0.0
 11
3769.1214990605
 21
4081.8262888001
 31
0.0
  0
LINE
  5
413
330
1F
100
AcDbEntity
  8
0
  6
Continuous
 62
     7
370
    18
100
AcDbLine
 10
3769.1214990605
 20
4081.8262888001
 30
0.0
 11
3682.1521012575
 21
4081.8262888001
 31
0.0
  0
LINE
  5
414
330
1F
100
AcDbEntity
  8
0
  6
Continuous
 62
     7
370
    18
100
AcDbLine
 10
3682.1521012575
 20
4081.8262888001
 30
0.0
 11
3692.8690009868
 21
4116.8594219431
 31
0.0
  0
LINE
  5
415
330
1F
100
AcDbEntity
  8
0
  6
Continuous
 62
     7
370
    18
100
AcDbLine
 10
3692.8690009868
 20
4116.8594219431
 30
0.0
 11
3894.9864958809
 21
4116.8594219431
 31
0.0
  0
LINE
  5
416
330
1F
100
AcDbEntity
  8
0
  6
Continuous
 62
     7
370
    18
100
AcDbLine
 10
3894.9864958809
 20
4116.8594219431
 30
0.0
 11
3882.2247962032
 21
4081.8262888001
 31
0.0
  0
LINE
  5
417
330
1F
100
AcDbEntity
  8
0
  6
Continuous
 62
     7
370
    18
100
AcDbLine
 10
3882.2247962032
 20
4081.8262888001
 30
0.0
 11
3806.0997981263
 21
4081.8262888001
 31
0.0
  0
LINE
  5
418
330
1F
100
AcDbEntity
  8
0
  6
Continuous
 62
     7
370
    18
100
AcDbLine
 10
3806.0997981263
 20
4081.8262888001
 30
0.0
 11
3745.2765996628
 21
3906.8914932193
 31
0.0
  0
LINE
  5
419
330
1F
100
AcDbEntity
  8
0
  6
Continuous
 62
     7
370
    18
100
AcDbLine
 10
3745.2765996628
 20
3906.8914932193
 30
0.0
 11
3708.298000597
 21
3906.8914932193
 31
0.0
  0
LINE
  5
41A
330
1F
100
AcDbEntity
  8
0
  6
Continuous
 62
     7
370
    18
100
AcDbLine
 10
3926.9553950733
 20
3906.8914932193
 30
0.0
 11
3987.7785935367
 21
4081.8262888001
 31
0.0
  0
LINE
  5
41B
330
1F
100
AcDbEntity
  8
0
  6
Continuous
 62
     7
370
    18
100
AcDbLine
 10
3987.7785935367
 20
4081.8262888001
 30
0.0
 11
3912.4680954392
 21
4081.8262888001
 31
0.0
  0
LINE
  5
41C
330
1F
100
AcDbEntity
  8
0
  6
Continuous
 62
     7
370
    18
100
AcDbLine
 10
3912.4680954392
 20
4081.8262888001
 30
0.0
 11
3923.1849951685
 21
4116.8594219431
 31
0.0
  0
LINE
  5
41D
330
1F
100
AcDbEntity
  8
0
  6
Continuous
 62
     7
370
    18
100
AcDbLine
 10
3923.1849951685
 20
4116.8594219431
 30
0.0
 11
4125.9720900457
 21
4116.8594219431
 31
0.0
  0
LINE
  5
41E
330
1F
100
AcDbEntity
  8
0
  6
Continuous
 62
     7
370
    18
100
AcDbLine
 10
4125.9720900457
 20
4116.8594219431
 30
0.0
 11
4113.2100903681
 21
4081.8262888001
 31
0.0
  0
LINE
  5
41F
330
1F
100
AcDbEntity
  8
0
  6
Continuous
 62
     7
370
    18
100
AcDbLine
 10
4113.2100903681
 20
4081.8262888001
 30
0.0
 11
4024.7571926026
 21
4081.8262888001
 31
0.0
  0
LINE
  5
420
330
1F
100
AcDbEntity
  8
0
  6
Continuous
 62
     7
370
    18
100
AcDbLine
 10
4024.7571926026
 20
4081.8262888001
 30
0.0
 11
3963.9339941391
 21
3906.8914932193
 31
0.0
  0
LINE
  5
421
330
1F
100
AcDbEntity
  8
0
  6
Continuous
 62
     7
370
    18
100
AcDbLine
 10
3963.9339941391
 20
3906.8914932193
 30
0.0
 11
3926.9553950733
 21
3906.8914932193
 31
0.0
  0
LINE
  5
422
330
1F
100
AcDbEntity
  8
0
  6
Continuous
 62
     7
370
    18
100
AcDbLine
 10
3426.4696077166
 20
3798.1561959662
 30
0.0
 11
3441.7288073311
 21
3843.3055948256
 31
0.0
  0
LINE
  5
423
330
1F
100
AcDbEntity
  8
0
  6
Continuous
 62
     7
370
    18
100
AcDbLine
 10
3441.7288073311
 20
3843.3055948256
 30
0.0
 11
3446.3035072155
 21
3843.3055948256
 31
0.0
  0
LINE
  5
424
330
1F
100
AcDbEntity
  8
0
  6
Continuous
 62
     7
370
    18
100
AcDbLine
 10
3446.3035072155
 20
3843.3055948256
 30
0.0
 11
3446.5966072081
 21
3813.7012955735
 31
0.0
  0
LINE
  5
425
330
1F
100
AcDbEntity
  8
0
  6
Continuous
 62
     7
370
    18
100
AcDbLine
 10
3446.5966072081
 20
3813.7012955735
 30
0.0
 11
3456.1750069662
 21
3843.3055948256
 31
0.0
  0
LINE
  5
426
330
1F
100
AcDbEntity
  8
0
  6
Continuous
 62
     7
370
    18
100
AcDbLine
 10
3456.1750069662
 20
3843.3055948256
 30
0.0
 11
3461.4193238667
 21
3843.3055948256
 31
0.0
  0
LINE
  5
427
330
1F
100
AcDbEntity
  8
0
  6
Continuous
 62
     7
370
    18
100
AcDbLine
 10
3461.4193238667
 20
3843.3055948256
 30
0.0
 11
3446.8117072027
 21
3798.1561959662
 31
0.0
  0
LINE
  5
428
330
1F
100
AcDbEntity
  8
0
  6
Continuous
 62
     7
370
    18
100
AcDbLine
 10
3446.8117072027
 20
3798.1561959662
 30
0.0
 11
3442.1038073216
 21
3798.1561959662
 31
0.0
  0
LINE
  5
429
330
1F
100
AcDbEntity
  8
0
  6
Continuous
 62
     7
370
    18
100
AcDbLine
 10
3442.1038073216
 20
3798.1561959662
 30
0.0
 11
3441.7126073315
 21
3798.2149959647
 31
0.0
  0
LINE
  5
42A
330
1F
100
AcDbEntity
  8
0
  6
Continuous
 62
     7
370
    18
100
AcDbLine
 10
3441.7126073315
 20
3798.2149959647
 30
0.0
 11
3441.4828073373
 21
3827.535195224
 31
0.0
  0
LINE
  5
42B
330
1F
100
AcDbEntity
  8
0
  6
Continuous
 62
     7
370
    18
100
AcDbLine
 10
3441.4828073373
 20
3827.535195224
 30
0.0
 11
3431.7253238667
 21
3798.1561959662
 31
0.0
  0
LINE
  5
42C
330
1F
100
AcDbEntity
  8
0
  6
Continuous
 62
     7
370
    18
100
AcDbLine
 10
3431.7253238667
 20
3798.1561959662
 30
0.0
 11
3426.4696077166
 21
3798.1561959662
 31
0.0
  0
LINE
  5
42D
330
1F
100
AcDbEntity
  8
0
  6
Continuous
 62
     7
370
    18
100
AcDbLine
 10
3402.5485083209
 20
3843.3055948256
 30
0.0
 11
3397.7908084411
 21
3828.6748951952
 31
0.0
  0
LINE
  5
42E
330
1F
100
AcDbEntity
  8
0
  6
Continuous
 62
     7
370
    18
100
AcDbLine
 10
3397.7908084411
 20
3828.6748951952
 30
0.0
 11
3410.2801081256
 21
3843.3055948256
 31
0.0
  0
LINE
  5
42F
330
1F
100
AcDbEntity
  8
0
  6
Continuous
 62
     7
370
    18
100
AcDbLine
 10
3410.2801081256
 20
3843.3055948256
 30
0.0
 11
3416.8441079597
 21
3843.3055948256
 31
0.0
  0
LINE
  5
430
330
1F
100
AcDbEntity
  8
0
  6
Continuous
 62
     7
370
    18
100
AcDbLine
 10
3416.8441079597
 20
3843.3055948256
 30
0.0
 11
3398.8102084153
 21
3822.1825953592
 31
0.0
  0
LINE
  5
431
330
1F
100
AcDbEntity
  8
0
  6
Continuous
 62
     7
370
    18
100
AcDbLine
 10
3398.8102084153
 20
3822.1825953592
 30
0.0
 11
3402.3100083269
 21
3798.1561959662
 31
0.0
  0
LINE
  5
432
330
1F
100
AcDbEntity
  8
0
  6
Continuous
 62
     7
370
    18
100
AcDbLine
 10
3402.3100083269
 20
3798.1561959662
 30
0.0
 11
3397.2604084545
 21
3798.1561959662
 31
0.0
  0
LINE
  5
433
330
1F
100
AcDbEntity
  8
0
  6
Continuous
 62
     7
370
    18
100
AcDbLine
 10
3397.2604084545
 20
3798.1561959662
 30
0.0
 11
3394.4965085243
 21
3817.1317954868
 31
0.0
  0
LINE
  5
434
330
1F
100
AcDbEntity
  8
0
  6
Continuous
 62
     7
370
    18
100
AcDbLine
 10
3394.4965085243
 20
3817.1317954868
 30
0.0
 11
3394.3513238667
 21
3816.9619954911
 31
0.0
  0
LINE
  5
435
330
1F
100
AcDbEntity
  8
0
  6
Continuous
 62
     7
370
    18
100
AcDbLine
 10
3394.3513238667
 20
3816.9619954911
 30
0.0
 11
3394.0600085353
 21
3817.2109954848
 31
0.0
  0
LINE
  5
436
330
1F
100
AcDbEntity
  8
0
  6
Continuous
 62
     7
370
    18
100
AcDbLine
 10
3394.0600085353
 20
3817.2109954848
 30
0.0
 11
3387.8620086919
 21
3798.1561959662
 31
0.0
  0
LINE
  5
437
330
1F
100
AcDbEntity
  8
0
  6
Continuous
 62
     7
370
    18
100
AcDbLine
 10
3387.8620086919
 20
3798.1561959662
 30
0.0
 11
3382.6093238667
 21
3798.1561959662
 31
0.0
  0
LINE
  5
438
330
1F
100
AcDbEntity
  8
0
  6
Continuous
 62
     7
370
    18
100
AcDbLine
 10
3382.6093238667
 20
3798.1561959662
 30
0.0
 11
3397.2958084536
 21
3843.3055948256
 31
0.0
  0
LINE
  5
439
330
1F
100
AcDbEntity
  8
0
  6
Continuous
 62
     7
370
    18
100
AcDbLine
 10
3397.2958084536
 20
3843.3055948256
 30
0.0
 11
3402.5485083209
 21
3843.3055948256
 31
0.0
  0
LINE
  5
43A
330
1F
100
AcDbEntity
  8
0
  6
Continuous
 62
     7
370
    18
100
AcDbLine
 10
3430.5418076137
 20
3843.3055948256
 30
0.0
 11
3415.8538079848
 21
3798.1561959662
 31
0.0
  0
LINE
  5
43B
330
1F
100
AcDbEntity
  8
0
  6
Continuous
 62
     7
370
    18
100
AcDbLine
 10
3415.8538079848
 20
3798.1561959662
 30
0.0
 11
3410.6008081175
 21
3798.1561959662
 31
0.0
  0
LINE
  5
43C
330
1F
100
AcDbEntity
  8
0
  6
Continuous
 62
     7
370
    18
100
AcDbLine
 10
3410.6008081175
 20
3798.1561959662
 30
0.0
 11
3425.2873238667
 21
3843.3055948256
 31
0.0
  0
LINE
  5
43D
330
1F
100
AcDbEntity
  8
0
  6
Continuous
 62
     7
370
    18
100
AcDbLine
 10
3425.2873238667
 20
3843.3055948256
 30
0.0
 11
3430.5418076137
 21
3843.3055948256
 31
0.0
  0
LINE
  5
43E
330
1F
100
AcDbEntity
  8
0
  6
Continuous
 62
     7
370
    18
100
AcDbLine
 10
3311.498210621
 20
3843.6337948173
 30
0.0
 11
3319.3234104233
 21
3843.6337948173
 31
0.0
  0
LINE
  5
43F
330
1F
100
AcDbEntity
  8
0
  6
Continuous
 62
     7
370
    18
100
AcDbLine
 10
3323.7841103106
 20
3837.2324219431
 30
0.0
 11
3321.0109103807
 21
3828.8594219431
 31
0.0
  0
LINE
  5
440
330
1F
100
AcDbEntity
  8
0
  6
Continuous
 62
     7
370
    18
100
AcDbLine
 10
3321.0109103807
 20
3828.8594219431
 30
0.0
 11
3315.7420105138
 21
3828.8594219431
 31
0.0
  0
LINE
  5
441
330
1F
100
AcDbEntity
  8
0
  6
Continuous
 62
     7
370
    18
100
AcDbLine
 10
3315.7420105138
 20
3828.8594219431
 30
0.0
 11
3318.9778104321
 21
3838.6270949438
 31
0.0
  0
LINE
  5
442
330
1F
100
AcDbEntity
  8
0
  6
Continuous
 62
     7
370
    18
100
AcDbLine
 10
3318.9778104321
 20
3838.6270949438
 30
0.0
 11
3311.498210621
 21
3838.6270949438
 31
0.0
  0
LINE
  5
443
330
1F
100
AcDbEntity
  8
0
  6
Continuous
 62
     7
370
    18
100
AcDbLine
 10
3309.7243238667
 20
3837.2324219431
 30
0.0
 11
3298.3660109528
 21
3802.9432958452
 31
0.0
  0
LINE
  5
444
330
1F
100
AcDbEntity
  8
0
  6
Continuous
 62
     7
370
    18
100
AcDbLine
 10
3298.3660109528
 20
3802.9432958452
 30
0.0
 11
3305.8441107638
 21
3802.9432958452
 31
0.0
  0
LINE
  5
445
330
1F
100
AcDbEntity
  8
0
  6
Continuous
 62
     7
370
    18
100
AcDbLine
 10
3307.619510719
 20
3804.3406958099
 30
0.0
 11
3310.6531106424
 21
3813.5020955785
 31
0.0
  0
LINE
  5
446
330
1F
100
AcDbEntity
  8
0
  6
Continuous
 62
     7
370
    18
100
AcDbLine
 10
3310.6531106424
 20
3813.5020955785
 30
0.0
 11
3315.9223238667
 21
3813.5020955785
 31
0.0
  0
LINE
  5
447
330
1F
100
AcDbEntity
  8
0
  6
Continuous
 62
     7
370
    18
100
AcDbLine
 10
3315.9223238667
 20
3813.5020955785
 30
0.0
 11
3312.370010599
 21
3802.7764958495
 31
0.0
  0
LINE
  5
448
330
1F
100
AcDbEntity
  8
0
  6
Continuous
 62
     7
370
    18
100
AcDbLine
 10
3305.8441107638
 20
3797.9395959716
 30
0.0
 11
3298.0204109615
 21
3797.9395959716
 31
0.0
  0
LINE
  5
449
330
1F
100
AcDbEntity
  8
0
  6
Continuous
 62
     7
370
    18
100
AcDbLine
 10
3293.5600110742
 20
3804.3406958099
 30
0.0
 11
3304.9726107859
 21
3838.7968949395
 31
0.0
  0
LINE
  5
44A
330
1F
100
AcDbEntity
  8
0
  6
Continuous
 62
     7
370
    18
100
AcDbLine
 10
3481.3879063292
 20
3829.2404219431
 30
0.0
 11
3484.6237062475
 21
3838.6270949438
 31
0.0
  0
LINE
  5
44B
330
1F
100
AcDbEntity
  8
0
  6
Continuous
 62
     7
370
    18
100
AcDbLine
 10
3484.6237062475
 20
3838.6270949438
 30
0.0
 11
3477.2497064338
 21
3838.6270949438
 31
0.0
  0
LINE
  5
44C
330
1F
100
AcDbEntity
  8
0
  6
Continuous
 62
     7
370
    18
100
AcDbLine
 10
3475.4758064786
 20
3837.2324219431
 30
0.0
 11
3464.1175067655
 21
3802.9432958452
 31
0.0
  0
LINE
  5
44D
330
1F
100
AcDbEntity
  8
0
  6
Continuous
 62
     7
370
    18
100
AcDbLine
 10
3464.1175067655
 20
3802.9432958452
 30
0.0
 11
3471.4945065792
 21
3802.9432958452
 31
0.0
  0
LINE
  5
44E
330
1F
100
AcDbEntity
  8
0
  6
Continuous
 62
     7
370
    18
100
AcDbLine
 10
3473.2684065343
 20
3804.3406958099
 30
0.0
 11
3477.4636064284
 21
3817.00579549
 31
0.0
  0
LINE
  5
44F
330
1F
100
AcDbEntity
  8
0
  6
Continuous
 62
     7
370
    18
100
AcDbLine
 10
3477.4636064284
 20
3817.00579549
 30
0.0
 11
3472.8523238667
 21
3817.00579549
 31
0.0
  0
LINE
  5
450
330
1F
100
AcDbEntity
  8
0
  6
Continuous
 62
     7
370
    18
100
AcDbLine
 10
3472.8523238667
 20
3817.00579549
 30
0.0
 11
3474.4123238667
 21
3822.0127953635
 31
0.0
  0
LINE
  5
451
330
1F
100
AcDbEntity
  8
0
  6
Continuous
 62
     7
370
    18
100
AcDbLine
 10
3474.4123238667
 20
3822.0127953635
 30
0.0
 11
3484.3909062534
 21
3822.0127953635
 31
0.0
  0
LINE
  5
452
330
1F
100
AcDbEntity
  8
0
  6
Continuous
 62
     7
370
    18
100
AcDbLine
 10
3484.3909062534
 20
3822.0127953635
 30
0.0
 11
3483.3025062809
 21
3818.7284219431
 31
0.0
  0
LINE
  5
453
330
1F
100
AcDbEntity
  8
0
  6
Continuous
 62
     7
370
    18
100
AcDbLine
 10
3483.3025062809
 20
3818.7284219431
 30
0.0
 11
3478.0204064143
 21
3802.7764958495
 31
0.0
  0
LINE
  5
454
330
1F
100
AcDbEntity
  8
0
  6
Continuous
 62
     7
370
    18
100
AcDbLine
 10
3471.4945065792
 20
3797.9395959716
 30
0.0
 11
3463.7719067743
 21
3797.9395959716
 31
0.0
  0
LINE
  5
455
330
1F
100
AcDbEntity
  8
0
  6
Continuous
 62
     7
370
    18
100
AcDbLine
 10
3459.3112068869
 20
3804.3406958099
 30
0.0
 11
3470.7253238667
 21
3838.7968949395
 31
0.0
  0
LINE
  5
456
330
1F
100
AcDbEntity
  8
0
  6
Continuous
 62
     7
370
    18
100
AcDbLine
 10
3477.2497064338
 20
3843.6337948173
 30
0.0
 11
3484.9726062387
 21
3843.6337948173
 31
0.0
  0
LINE
  5
457
330
1F
100
AcDbEntity
  8
0
  6
Continuous
 62
     7
370
    18
100
AcDbLine
 10
3489.4240061262
 20
3837.2032949798
 30
0.0
 11
3486.6790061956
 21
3829.2404219431
 31
0.0
  0
LINE
  5
458
330
1F
100
AcDbEntity
  8
0
  6
Continuous
 62
     7
370
    18
100
AcDbLine
 10
3486.6790061956
 20
3829.2404219431
 30
0.0
 11
3481.3879063292
 21
3829.2404219431
 31
0.0
  0
LINE
  5
459
330
1F
100
AcDbEntity
  8
0
  6
Continuous
 62
     7
370
    18
100
AcDbLine
 10
3370.4230091324
 20
3837.2324219431
 30
0.0
 11
3359.0662094193
 21
3802.9432958452
 31
0.0
  0
LINE
  5
45A
330
1F
100
AcDbEntity
  8
0
  6
Continuous
 62
     7
370
    18
100
AcDbLine
 10
3359.0662094193
 20
3802.9432958452
 30
0.0
 11
3367.7350092003
 21
3802.9432958452
 31
0.0
  0
LINE
  5
45B
330
1F
100
AcDbEntity
  8
0
  6
Continuous
 62
     7
370
    18
100
AcDbLine
 10
3369.5092091555
 20
3804.3406958099
 30
0.0
 11
3380.8675088686
 21
3838.6270949438
 31
0.0
  0
LINE
  5
45C
330
1F
100
AcDbEntity
  8
0
  6
Continuous
 62
     7
370
    18
100
AcDbLine
 10
3380.8675088686
 20
3838.6270949438
 30
0.0
 11
3372.1984090876
 21
3838.6270949438
 31
0.0
  0
LINE
  5
45D
330
1F
100
AcDbEntity
  8
0
  6
Continuous
 62
     7
370
    18
100
AcDbLine
 10
3372.1984090876
 20
3843.6337948173
 30
0.0
 11
3381.2131088599
 21
3843.6337948173
 31
0.0
  0
LINE
  5
45E
330
1F
100
AcDbEntity
  8
0
  6
Continuous
 62
     7
370
    18
100
AcDbLine
 10
3385.6723238667
 20
3837.2324219431
 30
0.0
 11
3374.2597090355
 21
3802.7764958495
 31
0.0
  0
LINE
  5
45F
330
1F
100
AcDbEntity
  8
0
  6
Continuous
 62
     7
370
    18
100
AcDbLine
 10
3367.7350092003
 20
3797.9395959716
 30
0.0
 11
3358.7191094281
 21
3797.9395959716
 31
0.0
  0
LINE
  5
460
330
1F
100
AcDbEntity
  8
0
  6
Continuous
 62
     7
370
    18
100
AcDbLine
 10
3354.2602095407
 20
3804.3406958099
 30
0.0
 11
3365.6725092525
 21
3838.7968949395
 31
0.0
  0
LINE
  5
461
330
1F
100
AcDbEntity
  8
0
  6
Continuous
 62
     7
370
    18
100
AcDbLine
 10
3339.2101099209
 20
3837.2324219431
 30
0.0
 11
3327.8518102079
 21
3802.9432958452
 31
0.0
  0
LINE
  5
462
330
1F
100
AcDbEntity
  8
0
  6
Continuous
 62
     7
370
    18
100
AcDbLine
 10
3327.8518102079
 20
3802.9432958452
 30
0.0
 11
3336.5209099889
 21
3802.9432958452
 31
0.0
  0
LINE
  5
463
330
1F
100
AcDbEntity
  8
0
  6
Continuous
 62
     7
370
    18
100
AcDbLine
 10
3338.2963238667
 20
3804.3406958099
 30
0.0
 11
3349.6531096571
 21
3838.6270949438
 31
0.0
  0
LINE
  5
464
330
1F
100
AcDbEntity
  8
0
  6
Continuous
 62
     7
370
    18
100
AcDbLine
 10
3349.6531096571
 20
3838.6270949438
 30
0.0
 11
3340.9843238667
 21
3838.6270949438
 31
0.0
  0
LINE
  5
465
330
1F
100
AcDbEntity
  8
0
  6
Continuous
 62
     7
370
    18
100
AcDbLine
 10
3340.9843238667
 20
3843.6337948173
 30
0.0
 11
3350.0002096484
 21
3843.6337948173
 31
0.0
  0
LINE
  5
466
330
1F
100
AcDbEntity
  8
0
  6
Continuous
 62
     7
370
    18
100
AcDbLine
 10
3354.4594095357
 20
3837.2324219431
 30
0.0
 11
3343.046809824
 21
3802.7764958495
 31
0.0
  0
LINE
  5
467
330
1F
100
AcDbEntity
  8
0
  6
Continuous
 62
     7
370
    18
100
AcDbLine
 10
3336.5209099889
 20
3797.9395959716
 30
0.0
 11
3327.5062102166
 21
3797.9395959716
 31
0.0
  0
LINE
  5
468
330
1F
100
AcDbEntity
  8
0
  6
Continuous
 62
     7
370
    18
100
AcDbLine
 10
3323.0473238667
 20
3804.3406958099
 30
0.0
 11
3334.4599100409
 21
3838.7968949395
 31
0.0
  0
LINE
  5
469
330
1F
100
AcDbEntity
  8
0
  6
Continuous
 62
     7
370
    18
100
AcDbLine
 10
3391.6342085966
 20
3984.8818912491
 30
0.0
 11
3473.2639065345
 21
3984.8818912491
 31
0.0
  0
LINE
  5
46A
330
1F
100
AcDbEntity
  8
0
  6
Continuous
 62
     7
370
    18
100
AcDbLine
 10
3507.4477056709
 20
4081.5406888073
 30
0.0
 11
3424.8553238667
 21
4081.5406888073
 31
0.0
  0
LINE
  5
46B
330
1F
100
AcDbEntity
  8
0
  6
Continuous
 62
     7
370
    18
100
AcDbLine
 10
3424.8553238667
 20
4081.5406888073
 30
0.0
 11
3391.6342085966
 21
3984.8818912491
 31
0.0
  0
LINE
  5
46C
330
1F
100
AcDbEntity
  8
0
  6
Continuous
 62
     7
370
    18
100
AcDbLine
 10
3285.1663238667
 20
3984.8818912491
 30
0.0
 11
3354.5794095327
 21
3984.8818912491
 31
0.0
  0
LINE
  5
46D
330
1F
100
AcDbEntity
  8
0
  6
Continuous
 62
     7
370
    18
100
AcDbLine
 10
3354.5794095327
 20
3984.8818912491
 30
0.0
 11
3395.8381084904
 21
4104.9259882165
 31
0.0
  0
LINE
  5
46E
330
1F
100
AcDbEntity
  8
0
  6
Continuous
 62
     7
370
    18
100
AcDbLine
 10
3395.8381084904
 20
4104.9259882165
 30
0.0
 11
3399.9397083868
 21
4116.8594219431
 31
0.0
  0
LINE
  5
46F
330
1F
100
AcDbEntity
  8
0
  6
Continuous
 62
     7
370
    18
100
AcDbLine
 10
3399.9397083868
 20
4116.8594219431
 30
0.0
 11
3509.225805626
 21
4116.8594219431
 31
0.0
  0
LINE
  5
470
330
1F
100
AcDbEntity
  8
0
  6
Continuous
 62
     7
370
    18
100
AcDbLine
 10
3571.292804058
 20
4037.09748993
 30
0.0
 11
3571.1566040615
 21
4035.8554899614
 31
0.0
  0
LINE
  5
471
330
1F
100
AcDbEntity
  8
0
  6
Continuous
 62
     7
370
    18
100
AcDbLine
 10
3474.4960065033
 20
3949.5634921413
 30
0.0
 11
3379.4950089033
 21
3949.5634921413
 31
0.0
  0
LINE
  5
472
330
1F
100
AcDbEntity
  8
0
  6
Continuous
 62
     7
370
    18
100
AcDbLine
 10
3379.4950089033
 20
3949.5634921413
 30
0.0
 11
3357.4477094602
 21
3885.4147937618
 31
0.0
  0
LINE
  5
473
330
1F
100
AcDbEntity
  8
0
  6
Continuous
 62
     7
370
    18
100
AcDbLine
 10
3357.4477094602
 20
3885.4147937618
 30
0.0
 11
4046.2434920598
 21
3885.4147937618
 31
0.0
  0
LINE
  5
474
330
1F
100
AcDbEntity
  8
0
  6
Continuous
 62
     7
370
    18
100
AcDbLine
 10
4046.2434920598
 20
3885.4147937618
 30
0.0
 11
4057.8420917668
 21
3852.5341945925
 31
0.0
  0
LINE
  5
475
330
1F
100
AcDbEntity
  8
0
  6
Continuous
 62
     7
370
    18
100
AcDbLine
 10
4057.8420917668
 20
3852.5341945925
 30
0.0
 11
3309.4636106724
 21
3852.5341945925
 31
0.0
  0
LINE
  5
476
330
1F
100
AcDbEntity
  8
0
  6
Continuous
 62
     7
370
    18
100
AcDbLine
 10
3309.4636106724
 20
3852.5341945925
 30
0.0
 11
3342.4417098393
 21
3949.5634921413
 31
0.0
  0
LINE
  5
477
330
1F
100
AcDbEntity
  8
0
  6
Continuous
 62
     7
370
    18
100
AcDbLine
 10
3342.4417098393
 20
3949.5634921413
 30
0.0
 11
3296.7577109934
 21
3949.5634921413
 31
0.0
  0
LINE
  5
478
330
1F
100
AcDbEntity
  8
0
  6
Continuous
 62
     7
370
    18
100
AcDbLine
 10
3296.7577109934
 20
3949.5634921413
 30
0.0
 11
3285.1663238667
 21
3984.8818912491
 31
0.0
  0
LINE
  5
479
330
1F
100
AcDbEntity
  8
0
  6
Continuous
 62
     7
370
    18
100
AcDbLine
 10
3554.946704471
 20
3906.8914932193
 30
0.0
 11
3627.4900026384
 21
4116.8594219431
 31
0.0
  0
LINE
  5
47A
330
1F
100
AcDbEntity
  8
0
  6
Continuous
 62
     7
370
    18
100
AcDbLine
 10
3627.4900026384
 20
4116.8594219431
 30
0.0
 11
3664.4686017042
 21
4116.8594219431
 31
0.0
  0
LINE
  5
47B
330
1F
100
AcDbEntity
  8
0
  6
Continuous
 62
     7
370
    18
100
AcDbLine
 10
3664.4686017042
 20
4116.8594219431
 30
0.0
 11
3591.9250035368
 21
3906.8914932193
 31
0.0
  0
LINE
  5
47C
330
1F
100
AcDbEntity
  8
0
  6
Continuous
 62
     7
370
    18
100
AcDbLine
 10
3591.9250035368
 20
3906.8914932193
 30
0.0
 11
3554.946704471
 21
3906.8914932193
 31
0.0
  0
LINE
  5
47D
330
1F
100
AcDbEntity
  8
0
  6
Continuous
 62
     7
370
    18
100
AcDbLine
 10
3708.298000597
 20
3906.8914932193
 30
0.0
 11
3769.1214990605
 21
4081.8262888001
 31
0.0
  0
LINE
  5
47E
330
1F
100
AcDbEntity
  8
0
  6
Continuous
 62
     7
370
    18
100
AcDbLine
 10
3769.1214990605
 20
4081.8262888001
 30
0.0
 11
3682.1521012575
 21
4081.8262888001
 31
0.0
  0
LINE
  5
47F
330
1F
100
AcDbEntity
  8
0
  6
Continuous
 62
     7
370
    18
100
AcDbLine
 10
3682.1521012575
 20
4081.8262888001
 30
0.0
 11
3692.8690009868
 21
4116.8594219431
 31
0.0
  0
LINE
  5
480
330
1F
100
AcDbEntity
  8
0
  6
Continuous
 62
     7
370
    18
100
AcDbLine
 10
3692.8690009868
 20
4116.8594219431
 30
0.0
 11
3894.9864958809
 21
4116.8594219431
 31
0.0
  0
LINE
  5
481
330
1F
100
AcDbEntity
  8
0
  6
Continuous
 62
     7
370
    18
100
AcDbLine
 10
3894.9864958809
 20
4116.8594219431
 30
0.0
 11
3882.2247962032
 21
4081.8262888001
 31
0.0
  0
LINE
  5
482
330
1F
100
AcDbEntity
  8
0
  6
Continuous
 62
     7
370
    18
100
AcDbLine
 10
3882.2247962032
 20
4081.8262888001
 30
0.0
 11
3806.0997981263
 21
4081.8262888001
 31
0.0
  0
LINE
  5
483
330
1F
100
AcDbEntity
  8
0
  6
Continuous
 62
     7
370
    18
100
AcDbLine
 10
3806.0997981263
 20
4081.8262888001
 30
0.0
 11
3745.2765996628
 21
3906.8914932193
 31
0.0
  0
LINE
  5
484
330
1F
100
AcDbEntity
  8
0
  6
Continuous
 62
     7
370
    18
100
AcDbLine
 10
3745.2765996628
 20
3906.8914932193
 30
0.0
 11
3708.298000597
 21
3906.8914932193
 31
0.0
  0
LINE
  5
485
330
1F
100
AcDbEntity
  8
0
  6
Continuous
 62
     7
370
    18
100
AcDbLine
 10
3926.9553950733
 20
3906.8914932193
 30
0.0
 11
3987.7785935367
 21
4081.8262888001
 31
0.0
  0
LINE
  5
486
330
1F
100
AcDbEntity
  8
0
  6
Continuous
 62
     7
370
    18
100
AcDbLine
 10
3987.7785935367
 20
4081.8262888001
 30
0.0
 11
3912.4680954392
 21
4081.8262888001
 31
0.0
  0
LINE
  5
487
330
1F
100
AcDbEntity
  8
0
  6
Continuous
 62
     7
370
    18
100
AcDbLine
 10
3912.4680954392
 20
4081.8262888001
 30
0.0
 11
3923.1849951685
 21
4116.8594219431
 31
0.0
  0
LINE
  5
488
330
1F
100
AcDbEntity
  8
0
  6
Continuous
 62
     7
370
    18
100
AcDbLine
 10
3923.1849951685
 20
4116.8594219431
 30
0.0
 11
4125.9720900457
 21
4116.8594219431
 31
0.0
  0
LINE
  5
489
330
1F
100
AcDbEntity
  8
0
  6
Continuous
 62
     7
370
    18
100
AcDbLine
 10
4125.9720900457
 20
4116.8594219431
 30
0.0
 11
4113.2100903681
 21
4081.8262888001
 31
0.0
  0
LINE
  5
48A
330
1F
100
AcDbEntity
  8
0
  6
Continuous
 62
     7
370
    18
100
AcDbLine
 10
4113.2100903681
 20
4081.8262888001
 30
0.0
 11
4024.7571926026
 21
4081.8262888001
 31
0.0
  0
LINE
  5
48B
330
1F
100
AcDbEntity
  8
0
  6
Continuous
 62
     7
370
    18
100
AcDbLine
 10
4024.7571926026
 20
4081.8262888001
 30
0.0
 11
3963.9339941391
 21
3906.8914932193
 31
0.0
  0
LINE
  5
48C
330
1F
100
AcDbEntity
  8
0
  6
Continuous
 62
     7
370
    18
100
AcDbLine
 10
3963.9339941391
 20
3906.8914932193
 30
0.0
 11
3926.9553950733
 21
3906.8914932193
 31
0.0
  0
LINE
  5
48D
330
1F
100
AcDbEntity
  8
0
  6
Continuous
 62
     7
370
    18
100
AcDbLine
 10
3426.4696077166
 20
3798.1561959662
 30
0.0
 11
3441.7288073311
 21
3843.3055948256
 31
0.0
  0
LINE
  5
48E
330
1F
100
AcDbEntity
  8
0
  6
Continuous
 62
     7
370
    18
100
AcDbLine
 10
3441.7288073311
 20
3843.3055948256
 30
0.0
 11
3446.3035072155
 21
3843.3055948256
 31
0.0
  0
LINE
  5
48F
330
1F
100
AcDbEntity
  8
0
  6
Continuous
 62
     7
370
    18
100
AcDbLine
 10
3446.3035072155
 20
3843.3055948256
 30
0.0
 11
3446.5966072081
 21
3813.7012955735
 31
0.0
  0
LINE
  5
490
330
1F
100
AcDbEntity
  8
0
  6
Continuous
 62
     7
370
    18
100
AcDbLine
 10
3446.5966072081
 20
3813.7012955735
 30
0.0
 11
3456.1750069662
 21
3843.3055948256
 31
0.0
  0
LINE
  5
491
330
1F
100
AcDbEntity
  8
0
  6
Continuous
 62
     7
370
    18
100
AcDbLine
 10
3456.1750069662
 20
3843.3055948256
 30
0.0
 11
3461.4193238667
 21
3843.3055948256
 31
0.0
  0
LINE
  5
492
330
1F
100
AcDbEntity
  8
0
  6
Continuous
 62
     7
370
    18
100
AcDbLine
 10
3461.4193238667
 20
3843.3055948256
 30
0.0
 11
3446.8117072027
 21
3798.1561959662
 31
0.0
  0
LINE
  5
493
330
1F
100
AcDbEntity
  8
0
  6
Continuous
 62
     7
370
    18
100
AcDbLine
 10
3446.8117072027
 20
3798.1561959662
 30
0.0
 11
3442.1038073216
 21
3798.1561959662
 31
0.0
  0
LINE
  5
494
330
1F
100
AcDbEntity
  8
0
  6
Continuous
 62
     7
370
    18
100
AcDbLine
 10
3442.1038073216
 20
3798.1561959662
 30
0.0
 11
3441.7126073315
 21
3798.2149959647
 31
0.0
  0
LINE
  5
495
330
1F
100
AcDbEntity
  8
0
  6
Continuous
 62
     7
370
    18
100
AcDbLine
 10
3441.7126073315
 20
3798.2149959647
 30
0.0
 11
3441.4828073373
 21
3827.535195224
 31
0.0
  0
LINE
  5
496
330
1F
100
AcDbEntity
  8
0
  6
Continuous
 62
     7
370
    18
100
AcDbLine
 10
3441.4828073373
 20
3827.535195224
 30
0.0
 11
3431.7253238667
 21
3798.1561959662
 31
0.0
  0
LINE
  5
497
330
1F
100
AcDbEntity
  8
0
  6
Continuous
 62
     7
370
    18
100
AcDbLine
 10
3431.7253238667
 20
3798.1561959662
 30
0.0
 11
3426.4696077166
 21
3798.1561959662
 31
0.0
  0
LINE
  5
498
330
1F
100
AcDbEntity
  8
0
  6
Continuous
 62
     7
370
    18
100
AcDbLine
 10
3402.5485083209
 20
3843.3055948256
 30
0.0
 11
3397.7908084411
 21
3828.6748951952
 31
0.0
  0
LINE
  5
499
330
1F
100
AcDbEntity
  8
0
  6
Continuous
 62
     7
370
    18
100
AcDbLine
 10
3397.7908084411
 20
3828.6748951952
 30
0.0
 11
3410.2801081256
 21
3843.3055948256
 31
0.0
  0
LINE
  5
49A
330
1F
100
AcDbEntity
  8
0
  6
Continuous
 62
     7
370
    18
100
AcDbLine
 10
3410.2801081256
 20
3843.3055948256
 30
0.0
 11
3416.8441079597
 21
3843.3055948256
 31
0.0
  0
LINE
  5
49B
330
1F
100
AcDbEntity
  8
0
  6
Continuous
 62
     7
370
    18
100
AcDbLine
 10
3416.8441079597
 20
3843.3055948256
 30
0.0
 11
3398.8102084153
 21
3822.1825953592
 31
0.0
  0
LINE
  5
49C
330
1F
100
AcDbEntity
  8
0
  6
Continuous
 62
     7
370
    18
100
AcDbLine
 10
3398.8102084153
 20
3822.1825953592
 30
0.0
 11
3402.3100083269
 21
3798.1561959662
 31
0.0
  0
LINE
  5
49D
330
1F
100
AcDbEntity
  8
0
  6
Continuous
 62
     7
370
    18
100
AcDbLine
 10
3402.3100083269
 20
3798.1561959662
 30
0.0
 11
3397.2604084545
 21
3798.1561959662
 31
0.0
  0
LINE
  5
49E
330
1F
100
AcDbEntity
  8
0
  6
Continuous
 62
     7
370
    18
100
AcDbLine
 10
3397.2604084545
 20
3798.1561959662
 30
0.0
 11
3394.4965085243
 21
3817.1317954868
 31
0.0
  0
LINE
  5
49F
330
1F
100
AcDbEntity
  8
0
  6
Continuous
 62
     7
370
    18
100
AcDbLine
 10
3394.4965085243
 20
3817.1317954868
 30
0.0
 11
3394.3513238667
 21
3816.9619954911
 31
0.0
  0
LINE
  5
4A0
330
1F
100
AcDbEntity
  8
0
  6
Continuous
 62
     7
370
    18
100
AcDbLine
 10
3394.3513238667
 20
3816.9619954911
 30
0.0
 11
3394.0600085353
 21
3817.2109954848
 31
0.0
  0
LINE
  5
4A1
330
1F
100
AcDbEntity
  8
0
  6
Continuous
 62
     7
370
    18
100
AcDbLine
 10
3394.0600085353
 20
3817.2109954848
 30
0.0
 11
3387.8620086919
 21
3798.1561959662
 31
0.0
  0
LINE
  5
4A2
330
1F
100
AcDbEntity
  8
0
  6
Continuous
 62
     7
370
    18
100
AcDbLine
 10
3387.8620086919
 20
3798.1561959662
 30
0.0
 11
3382.6093238667
 21
3798.1561959662
 31
0.0
  0
LINE
  5
4A3
330
1F
100
AcDbEntity
  8
0
  6
Continuous
 62
     7
370
    18
100
AcDbLine
 10
3382.6093238667
 20
3798.1561959662
 30
0.0
 11
3397.2958084536
 21
3843.3055948256
 31
0.0
  0
LINE
  5
4A4
330
1F
100
AcDbEntity
  8
0
  6
Continuous
 62
     7
370
    18
100
AcDbLine
 10
3397.2958084536
 20
3843.3055948256
 30
0.0
 11
3402.5485083209
 21
3843.3055948256
 31
0.0
  0
LINE
  5
4A5
330
1F
100
AcDbEntity
  8
0
  6
Continuous
 62
     7
370
    18
100
AcDbLine
 10
3430.5418076137
 20
3843.3055948256
 30
0.0
 11
3415.8538079848
 21
3798.1561959662
 31
0.0
  0
LINE
  5
4A6
330
1F
100
AcDbEntity
  8
0
  6
Continuous
 62
     7
370
    18
100
AcDbLine
 10
3415.8538079848
 20
3798.1561959662
 30
0.0
 11
3410.6008081175
 21
3798.1561959662
 31
0.0
  0
LINE
  5
4A7
330
1F
100
AcDbEntity
  8
0
  6
Continuous
 62
     7
370
    18
100
AcDbLine
 10
3410.6008081175
 20
3798.1561959662
 30
0.0
 11
3425.2873238667
 21
3843.3055948256
 31
0.0
  0
LINE
  5
4A8
330
1F
100
AcDbEntity
  8
0
  6
Continuous
 62
     7
370
    18
100
AcDbLine
 10
3425.2873238667
 20
3843.3055948256
 30
0.0
 11
3430.5418076137
 21
3843.3055948256
 31
0.0
  0
LINE
  5
4A9
330
1F
100
AcDbEntity
  8
0
  6
Continuous
 62
     7
370
    18
100
AcDbLine
 10
3311.498210621
 20
3843.6337948173
 30
0.0
 11
3319.3234104233
 21
3843.6337948173
 31
0.0
  0
LINE
  5
4AA
330
1F
100
AcDbEntity
  8
0
  6
Continuous
 62
     7
370
    18
100
AcDbLine
 10
3323.7841103106
 20
3837.2324219431
 30
0.0
 11
3321.0109103807
 21
3828.8594219431
 31
0.0
  0
LINE
  5
4AB
330
1F
100
AcDbEntity
  8
0
  6
Continuous
 62
     7
370
    18
100
AcDbLine
 10
3321.0109103807
 20
3828.8594219431
 30
0.0
 11
3315.7420105138
 21
3828.8594219431
 31
0.0
  0
LINE
  5
4AC
330
1F
100
AcDbEntity
  8
0
  6
Continuous
 62
     7
370
    18
100
AcDbLine
 10
3315.7420105138
 20
3828.8594219431
 30
0.0
 11
3318.9778104321
 21
3838.6270949438
 31
0.0
  0
LINE
  5
4AD
330
1F
100
AcDbEntity
  8
0
  6
Continuous
 62
     7
370
    18
100
AcDbLine
 10
3318.9778104321
 20
3838.6270949438
 30
0.0
 11
3311.498210621
 21
3838.6270949438
 31
0.0
  0
LINE
  5
4AE
330
1F
100
AcDbEntity
  8
0
  6
Continuous
 62
     7
370
    18
100
AcDbLine
 10
3309.7243238667
 20
3837.2324219431
 30
0.0
 11
3298.3660109528
 21
3802.9432958452
 31
0.0
  0
LINE
  5
4AF
330
1F
100
AcDbEntity
  8
0
  6
Continuous
 62
     7
370
    18
100
AcDbLine
 10
3298.3660109528
 20
3802.9432958452
 30
0.0
 11
3305.8441107638
 21
3802.9432958452
 31
0.0
  0
LINE
  5
4B0
330
1F
100
AcDbEntity
  8
0
  6
Continuous
 62
     7
370
    18
100
AcDbLine
 10
3307.619510719
 20
3804.3406958099
 30
0.0
 11
3310.6531106424
 21
3813.5020955785
 31
0.0
  0
LINE
  5
4B1
330
1F
100
AcDbEntity
  8
0
  6
Continuous
 62
     7
370
    18
100
AcDbLine
 10
3310.6531106424
 20
3813.5020955785
 30
0.0
 11
3315.9223238667
 21
3813.5020955785
 31
0.0
  0
LINE
  5
4B2
330
1F
100
AcDbEntity
  8
0
  6
Continuous
 62
     7
370
    18
100
AcDbLine
 10
3315.9223238667
 20
3813.5020955785
 30
0.0
 11
3312.370010599
 21
3802.7764958495
 31
0.0
  0
LINE
  5
4B3
330
1F
100
AcDbEntity
  8
0
  6
Continuous
 62
     7
370
    18
100
AcDbLine
 10
3305.8441107638
 20
3797.9395959716
 30
0.0
 11
3298.0204109615
 21
3797.9395959716
 31
0.0
  0
LINE
  5
4B4
330
1F
100
AcDbEntity
  8
0
  6
Continuous
 62
     7
370
    18
100
AcDbLine
 10
3293.5600110742
 20
3804.3406958099
 30
0.0
 11
3304.9726107859
 21
3838.7968949395
 31
0.0
  0
LINE
  5
4B5
330
1F
100
AcDbEntity
  8
0
  6
Continuous
 62
     7
370
    18
100
AcDbLine
 10
3481.3879063292
 20
3829.2404219431
 30
0.0
 11
3484.6237062475
 21
3838.6270949438
 31
0.0
  0
LINE
  5
4B6
330
1F
100
AcDbEntity
  8
0
  6
Continuous
 62
     7
370
    18
100
AcDbLine
 10
3484.6237062475
 20
3838.6270949438
 30
0.0
 11
3477.2497064338
 21
3838.6270949438
 31
0.0
  0
LINE
  5
4B7
330
1F
100
AcDbEntity
  8
0
  6
Continuous
 62
     7
370
    18
100
AcDbLine
 10
3475.4758064786
 20
3837.2324219431
 30
0.0
 11
3464.1175067655
 21
3802.9432958452
 31
0.0
  0
LINE
  5
4B8
330
1F
100
AcDbEntity
  8
0
  6
Continuous
 62
     7
370
    18
100
AcDbLine
 10
3464.1175067655
 20
3802.9432958452
 30
0.0
 11
3471.4945065792
 21
3802.9432958452
 31
0.0
  0
LINE
  5
4B9
330
1F
100
AcDbEntity
  8
0
  6
Continuous
 62
     7
370
    18
100
AcDbLine
 10
3473.2684065343
 20
3804.3406958099
 30
0.0
 11
3477.4636064284
 21
3817.00579549
 31
0.0
  0
LINE
  5
4BA
330
1F
100
AcDbEntity
  8
0
  6
Continuous
 62
     7
370
    18
100
AcDbLine
 10
3477.4636064284
 20
3817.00579549
 30
0.0
 11
3472.8523238667
 21
3817.00579549
 31
0.0
  0
LINE
  5
4BB
330
1F
100
AcDbEntity
  8
0
  6
Continuous
 62
     7
370
    18
100
AcDbLine
 10
3472.8523238667
 20
3817.00579549
 30
0.0
 11
3474.4123238667
 21
3822.0127953635
 31
0.0
  0
LINE
  5
4BC
330
1F
100
AcDbEntity
  8
0
  6
Continuous
 62
     7
370
    18
100
AcDbLine
 10
3474.4123238667
 20
3822.0127953635
 30
0.0
 11
3484.3909062534
 21
3822.0127953635
 31
0.0
  0
LINE
  5
4BD
330
1F
100
AcDbEntity
  8
0
  6
Continuous
 62
     7
370
    18
100
AcDbLine
 10
3484.3909062534
 20
3822.0127953635
 30
0.0
 11
3483.3025062809
 21
3818.7284219431
 31
0.0
  0
LINE
  5
4BE
330
1F
100
AcDbEntity
  8
0
  6
Continuous
 62
     7
370
    18
100
AcDbLine
 10
3483.3025062809
 20
3818.7284219431
 30
0.0
 11
3478.0204064143
 21
3802.7764958495
 31
0.0
  0
LINE
  5
4BF
330
1F
100
AcDbEntity
  8
0
  6
Continuous
 62
     7
370
    18
100
AcDbLine
 10
3471.4945065792
 20
3797.9395959716
 30
0.0
 11
3463.7719067743
 21
3797.9395959716
 31
0.0
  0
LINE
  5
4C0
330
1F
100
AcDbEntity
  8
0
  6
Continuous
 62
     7
370
    18
100
AcDbLine
 10
3459.3112068869
 20
3804.3406958099
 30
0.0
 11
3470.7253238667
 21
3838.7968949395
 31
0.0
  0
LINE
  5
4C1
330
1F
100
AcDbEntity
  8
0
  6
Continuous
 62
     7
370
    18
100
AcDbLine
 10
3477.2497064338
 20
3843.6337948173
 30
0.0
 11
3484.9726062387
 21
3843.6337948173
 31
0.0
  0
LINE
  5
4C2
330
1F
100
AcDbEntity
  8
0
  6
Continuous
 62
     7
370
    18
100
AcDbLine
 10
3489.4240061262
 20
3837.2032949798
 30
0.0
 11
3486.6790061956
 21
3829.2404219431
 31
0.0
  0
LINE
  5
4C3
330
1F
100
AcDbEntity
  8
0
  6
Continuous
 62
     7
370
    18
100
AcDbLine
 10
3486.6790061956
 20
3829.2404219431
 30
0.0
 11
3481.3879063292
 21
3829.2404219431
 31
0.0
  0
LINE
  5
4C4
330
1F
100
AcDbEntity
  8
0
  6
Continuous
 62
     7
370
    18
100
AcDbLine
 10
3370.4230091324
 20
3837.2324219431
 30
0.0
 11
3359.0662094193
 21
3802.9432958452
 31
0.0
  0
LINE
  5
4C5
330
1F
100
AcDbEntity
  8
0
  6
Continuous
 62
     7
370
    18
100
AcDbLine
 10
3359.0662094193
 20
3802.9432958452
 30
0.0
 11
3367.7350092003
 21
3802.9432958452
 31
0.0
  0
LINE
  5
4C6
330
1F
100
AcDbEntity
  8
0
  6
Continuous
 62
     7
370
    18
100
AcDbLine
 10
3369.5092091555
 20
3804.3406958099
 30
0.0
 11
3380.8675088686
 21
3838.6270949438
 31
0.0
  0
LINE
  5
4C7
330
1F
100
AcDbEntity
  8
0
  6
Continuous
 62
     7
370
    18
100
AcDbLine
 10
3380.8675088686
 20
3838.6270949438
 30
0.0
 11
3372.1984090876
 21
3838.6270949438
 31
0.0
  0
LINE
  5
4C8
330
1F
100
AcDbEntity
  8
0
  6
Continuous
 62
     7
370
    18
100
AcDbLine
 10
3372.1984090876
 20
3843.6337948173
 30
0.0
 11
3381.2131088599
 21
3843.6337948173
 31
0.0
  0
LINE
  5
4C9
330
1F
100
AcDbEntity
  8
0
  6
Continuous
 62
     7
370
    18
100
AcDbLine
 10
3385.6723238667
 20
3837.2324219431
 30
0.0
 11
3374.2597090355
 21
3802.7764958495
 31
0.0
  0
LINE
  5
4CA
330
1F
100
AcDbEntity
  8
0
  6
Continuous
 62
     7
370
    18
100
AcDbLine
 10
3367.7350092003
 20
3797.9395959716
 30
0.0
 11
3358.7191094281
 21
3797.9395959716
 31
0.0
  0
LINE
  5
4CB
330
1F
100
AcDbEntity
  8
0
  6
Continuous
 62
     7
370
    18
100
AcDbLine
 10
3354.2602095407
 20
3804.3406958099
 30
0.0
 11
3365.6725092525
 21
3838.7968949395
 31
0.0
  0
LINE
  5
4CC
330
1F
100
AcDbEntity
  8
0
  6
Continuous
 62
     7
370
    18
100
AcDbLine
 10
3339.2101099209
 20
3837.2324219431
 30
0.0
 11
3327.8518102079
 21
3802.9432958452
 31
0.0
  0
LINE
  5
4CD
330
1F
100
AcDbEntity
  8
0
  6
Continuous
 62
     7
370
    18
100
AcDbLine
 10
3327.8518102079
 20
3802.9432958452
 30
0.0
 11
3336.5209099889
 21
3802.9432958452
 31
0.0
  0
LINE
  5
4CE
330
1F
100
AcDbEntity
  8
0
  6
Continuous
 62
     7
370
    18
100
AcDbLine
 10
3338.2963238667
 20
3804.3406958099
 30
0.0
 11
3349.6531096571
 21
3838.6270949438
 31
0.0
  0
LINE
  5
4CF
330
1F
100
AcDbEntity
  8
0
  6
Continuous
 62
     7
370
    18
100
AcDbLine
 10
3349.6531096571
 20
3838.6270949438
 30
0.0
 11
3340.9843238667
 21
3838.6270949438
 31
0.0
  0
LINE
  5
4D0
330
1F
100
AcDbEntity
  8
0
  6
Continuous
 62
     7
370
    18
100
AcDbLine
 10
3340.9843238667
 20
3843.6337948173
 30
0.0
 11
3350.0002096484
 21
3843.6337948173
 31
0.0
  0
LINE
  5
4D1
330
1F
100
AcDbEntity
  8
0
  6
Continuous
 62
     7
370
    18
100
AcDbLine
 10
3354.4594095357
 20
3837.2324219431
 30
0.0
 11
3343.046809824
 21
3802.7764958495
 31
0.0
  0
LINE
  5
4D2
330
1F
100
AcDbEntity
  8
0
  6
Continuous
 62
     7
370
    18
100
AcDbLine
 10
3336.5209099889
 20
3797.9395959716
 30
0.0
 11
3327.5062102166
 21
3797.9395959716
 31
0.0
  0
LINE
  5
4D3
330
1F
100
AcDbEntity
  8
0
  6
Continuous
 62
     7
370
    18
100
AcDbLine
 10
3323.0473238667
 20
3804.3406958099
 30
0.0
 11
3334.4599100409
 21
3838.7968949395
 31
0.0
  0
SPLINE
  5
4D4
330
1F
100
AcDbEntity
  8
0
  6
Continuous
 62
     7
370
    18
100
AcDbSpline
210
0.0
220
0.0
230
1.0
 70
     8
 71
     3
 72
    11
 73
     7
 74
     0
 42
0.00000001
 43
0.00000001
 40
0.0
 40
0.0
 40
0.0
 40
0.0
 40
1.0
 40
2.0
 40
3.0
 40
4.0
 40
4.0
 40
4.0
 40
4.0
 10
3473.263906534463
 20
3984.881891249089
 30
0.0
 10
3525.463605215788
 20
3986.906891197934
 30
0.0
 10
3535.793804954825
 20
4037.002689932408
 30
0.0
 10
3536.612504934143
 20
4041.465489819668
 30
0.0
 10
3539.980323866747
 20
4080.202688841084
 30
0.0
 10
3507.541323866747
 20
4081.536188807396
 30
0.0
 10
3507.447705670908
 20
4081.540688807283
 30
0.0
  0
SPLINE
  5
4D5
330
1F
100
AcDbEntity
  8
0
  6
Continuous
 62
     7
370
    18
100
AcDbSpline
210
0.0
220
0.0
230
1.0
 70
     8
 71
     3
 72
     8
 73
     4
 74
     0
 42
0.00000001
 43
0.00000001
 40
0.0
 40
0.0
 40
0.0
 40
0.0
 40
1.0
 40
1.0
 40
1.0
 40
1.0
 10
3509.225805625989
 20
4116.859421943139
 30
0.0
 10
3509.426505620919
 20
4116.849187915315
 30
0.0
 10
3578.984803863729
 20
4113.93708798888
 30
0.0
 10
3571.292804058045
 20
4037.097489930012
 30
0.0
  0
SPLINE
  5
4D6
330
1F
100
AcDbEntity
  8
0
  6
Continuous
 62
     7
370
    18
100
AcDbSpline
210
0.0
220
0.0
230
1.0
 70
     8
 71
     3
 72
     8
 73
     4
 74
     0
 42
0.00000001
 43
0.00000001
 40
0.0
 40
0.0
 40
0.0
 40
0.0
 40
1.0
 40
1.0
 40
1.0
 40
1.0
 10
3571.156604061486
 20
4035.855489961388
 30
0.0
 10
3571.115504062524
 20
4035.617589967398
 30
0.0
 10
3557.746004400266
 20
3952.791492059762
 30
0.0
 10
3474.496006503338
 20
3949.563492141307
 30
0.0
  0
SPLINE
  5
4D7
330
1F
100
AcDbEntity
  8
0
  6
Continuous
 62
     7
370
    18
100
AcDbSpline
210
0.0
220
0.0
230
1.0
 70
     8
 71
     3
 72
    17
 73
    13
 74
     0
 42
0.00000001
 43
0.00000001
 40
0.0
 40
0.0
 40
0.0
 40
0.0
 40
1.0
 40
2.0
 40
3.0
 40
4.0
 40
5.0
 40
6.0
 40
7.0
 40
8.0
 40
9.0
 40
10.0
 40
10.0
 40
10.0
 40
10.0
 10
3319.323410423327
 20
3843.633794817317
 30
0.0
 10
3319.900610408746
 20
3843.633794817317
 30
0.0
 10
3320.445710394976
 20
3843.542894819612
 30
0.0
 10
3320.947910382289
 20
3843.378794823758
 30
0.0
 10
3321.923510357644
 20
3843.053594831974
 30
0.0
 10
3322.707410337841
 20
3842.464994846843
 30
0.0
 10
3323.25371032404
 20
3841.682594866608
 30
0.0
 10
3323.785323866745
 20
3840.920894885851
 30
0.0
 10
3324.076910303244
 20
3839.995094909238
 30
0.0
 10
3324.076910303244
 20
3838.987421943141
 30
0.0
 10
3324.076910303244
 20
3838.42189494898
 30
0.0
 10
3323.981810305646
 20
3837.829994963933
 30
0.0
 10
3323.78411031064
 20
3837.232421943138
 30
0.0
  0
SPLINE
  5
4D8
330
1F
100
AcDbEntity
  8
0
  6
Continuous
 62
     7
370
    18
100
AcDbSpline
210
0.0
220
0.0
230
1.0
 70
     8
 71
     3
 72
    11
 73
     7
 74
     0
 42
0.00000001
 43
0.00000001
 40
0.0
 40
0.0
 40
0.0
 40
0.0
 40
1.0
 40
2.0
 40
3.0
 40
4.0
 40
4.0
 40
4.0
 40
4.0
 10
3311.498210621009
 20
3838.627094943796
 30
0.0
 10
3311.187710628853
 20
3838.627094943796
 30
0.0
 10
3310.82441063803
 20
3838.471694947722
 30
0.0
 10
3310.489010646503
 20
3838.219694954089
 30
0.0
 10
3310.130210655567
 20
3837.950294960893
 30
0.0
 10
3309.846110662744
 20
3837.598694969776
 30
0.0
 10
3309.724323866746
 20
3837.232421943138
 30
0.0
  0
SPLINE
  5
4D9
330
1F
100
AcDbEntity
  8
0
  6
Continuous
 62
     7
370
    18
100
AcDbSpline
210
0.0
220
0.0
230
1.0
 70
     8
 71
     3
 72
    11
 73
     7
 74
     0
 42
0.00000001
 43
0.00000001
 40
0.0
 40
0.0
 40
0.0
 40
0.0
 40
1.0
 40
2.0
 40
3.0
 40
4.0
 40
4.0
 40
4.0
 40
4.0
 10
3305.844110763843
 20
3802.943295845246
 30
0.0
 10
3306.156110755962
 20
3802.943295845246
 30
0.0
 10
3306.519410746784
 20
3803.101695841244
 30
0.0
 10
3306.854810738311
 20
3803.350695834953
 30
0.0
 10
3307.213610729247
 20
3803.620095828148
 30
0.0
 10
3307.49771072207
 20
3803.971695819266
 30
0.0
 10
3307.619510718993
 20
3804.340695809944
 30
0.0
  0
SPLINE
  5
4DA
330
1F
100
AcDbEntity
  8
0
  6
Continuous
 62
     7
370
    18
100
AcDbSpline
210
0.0
220
0.0
230
1.0
 70
     8
 71
     3
 72
    11
 73
     7
 74
     0
 42
0.00000001
 43
0.00000001
 40
0.0
 40
0.0
 40
0.0
 40
0.0
 40
1.0
 40
2.0
 40
3.0
 40
4.0
 40
4.0
 40
4.0
 40
4.0
 10
3312.370010598985
 20
3802.776495849458
 30
0.0
 10
3311.92451061024
 20
3801.431595883433
 30
0.0
 10
3310.990010633847
 20
3800.221695913998
 30
0.0
 10
3309.844610662782
 20
3799.363421943139
 30
0.0
 10
3308.675510692316
 20
3798.48442194314
 30
0.0
 10
3307.247510728391
 20
3797.939595971649
 30
0.0
 10
3305.844110763843
 20
3797.93959597165
 30
0.0
  0
SPLINE
  5
4DB
330
1F
100
AcDbEntity
  8
0
  6
Continuous
 62
     7
370
    18
100
AcDbSpline
210
0.0
220
0.0
230
1.0
 70
     8
 71
     3
 72
    17
 73
    13
 74
     0
 42
0.00000001
 43
0.00000001
 40
0.0
 40
0.0
 40
0.0
 40
0.0
 40
1.0
 40
2.0
 40
3.0
 40
4.0
 40
5.0
 40
6.0
 40
7.0
 40
8.0
 40
9.0
 40
10.0
 40
10.0
 40
10.0
 40
10.0
 10
3298.020410961487
 20
3797.939595971649
 30
0.0
 10
3297.443210976069
 20
3797.939595971649
 30
0.0
 10
3296.898110989838
 20
3798.027495969429
 30
0.0
 10
3296.395911002525
 20
3798.194295965215
 30
0.0
 10
3295.420323866746
 20
3798.516495957076
 30
0.0
 10
3294.635211047004
 20
3799.108421943142
 30
0.0
 10
3294.090111060774
 20
3799.887795922434
 30
0.0
 10
3293.558511074204
 20
3800.652495903116
 30
0.0
 10
3293.26691108157
 20
3801.575295879803
 30
0.0
 10
3293.26691108157
 20
3802.585995854271
 30
0.0
 10
3293.26691108157
 20
3803.148495840061
 30
0.0
 10
3293.362011079168
 20
3803.740421943141
 30
0.0
 10
3293.560011074166
 20
3804.340695809944
 30
0.0
  0
SPLINE
  5
4DC
330
1F
100
AcDbEntity
  8
0
  6
Continuous
 62
     7
370
    18
100
AcDbSpline
210
0.0
220
0.0
230
1.0
 70
     8
 71
     3
 72
    11
 73
     7
 74
     0
 42
0.00000001
 43
0.00000001
 40
0.0
 40
0.0
 40
0.0
 40
0.0
 40
1.0
 40
2.0
 40
3.0
 40
4.0
 40
4.0
 40
4.0
 40
4.0
 10
3304.972610785859
 20
3838.796894939507
 30
0.0
 10
3305.419323866747
 20
3840.14149490554
 30
0.0
 10
3306.353810750967
 20
3841.348694875043
 30
0.0
 10
3307.49771072207
 20
3842.209994853285
 30
0.0
 10
3308.668323866746
 20
3843.08899483108
 30
0.0
 10
3310.096610656416
 20
3843.633794817317
 30
0.0
 10
3311.498210621009
 20
3843.633794817317
 30
0.0
  0
SPLINE
  5
4DD
330
1F
100
AcDbEntity
  8
0
  6
Continuous
 62
     7
370
    18
100
AcDbSpline
210
0.0
220
0.0
230
1.0
 70
     8
 71
     3
 72
    11
 73
     7
 74
     0
 42
0.00000001
 43
0.00000001
 40
0.0
 40
0.0
 40
0.0
 40
0.0
 40
1.0
 40
2.0
 40
3.0
 40
4.0
 40
4.0
 40
4.0
 40
4.0
 10
3477.249706433773
 20
3838.627094943796
 30
0.0
 10
3476.939206441618
 20
3838.627094943796
 30
0.0
 10
3476.575906450795
 20
3838.471694947722
 30
0.0
 10
3476.240506459268
 20
3838.219694954089
 30
0.0
 10
3475.881706468332
 20
3837.950294960893
 30
0.0
 10
3475.597606475509
 20
3837.598694969776
 30
0.0
 10
3475.475806478586
 20
3837.232421943138
 30
0.0
  0
SPLINE
  5
4DE
330
1F
100
AcDbEntity
  8
0
  6
Continuous
 62
     7
370
    18
100
AcDbSpline
210
0.0
220
0.0
230
1.0
 70
     8
 71
     3
 72
    11
 73
     7
 74
     0
 42
0.00000001
 43
0.00000001
 40
0.0
 40
0.0
 40
0.0
 40
0.0
 40
1.0
 40
2.0
 40
3.0
 40
4.0
 40
4.0
 40
4.0
 40
4.0
 10
3471.494506579162
 20
3802.943295845246
 30
0.0
 10
3471.805006571318
 20
3802.943295845246
 30
0.0
 10
3472.168323866746
 20
3803.101695841244
 30
0.0
 10
3472.503706553667
 20
3803.350695834953
 30
0.0
 10
3472.862506544604
 20
3803.620095828148
 30
0.0
 10
3473.146906537419
 20
3803.971695819266
 30
0.0
 10
3473.268406534349
 20
3804.340695809944
 30
0.0
  0
SPLINE
  5
4DF
330
1F
100
AcDbEntity
  8
0
  6
Continuous
 62
     7
370
    18
100
AcDbSpline
210
0.0
220
0.0
230
1.0
 70
     8
 71
     3
 72
    11
 73
     7
 74
     0
 42
0.00000001
 43
0.00000001
 40
0.0
 40
0.0
 40
0.0
 40
0.0
 40
1.0
 40
2.0
 40
3.0
 40
4.0
 40
4.0
 40
4.0
 40
4.0
 10
3478.020406414304
 20
3802.776495849459
 30
0.0
 10
3477.573406425596
 20
3801.431595883433
 30
0.0
 10
3476.638906449203
 20
3800.221695913998
 30
0.0
 10
3475.495006478101
 20
3799.363421943139
 30
0.0
 10
3474.324406507673
 20
3798.48442194314
 30
0.0
 10
3472.896406543747
 20
3797.93959597165
 30
0.0
 10
3471.494506579162
 20
3797.93959597165
 30
0.0
  0
SPLINE
  5
4E0
330
1F
100
AcDbEntity
  8
0
  6
Continuous
 62
     7
370
    18
100
AcDbSpline
210
0.0
220
0.0
230
1.0
 70
     8
 71
     3
 72
    17
 73
    13
 74
     0
 42
0.00000001
 43
0.00000001
 40
0.0
 40
0.0
 40
0.0
 40
0.0
 40
1.0
 40
2.0
 40
3.0
 40
4.0
 40
5.0
 40
6.0
 40
7.0
 40
8.0
 40
9.0
 40
10.0
 40
10.0
 40
10.0
 40
10.0
 10
3463.771906774252
 20
3797.939595971649
 30
0.0
 10
3463.194706788833
 20
3797.939595971649
 30
0.0
 10
3462.649606802604
 20
3798.027495969429
 30
0.0
 10
3462.14740681529
 20
3798.194295965215
 30
0.0
 10
3461.173006839905
 20
3798.516495957076
 30
0.0
 10
3460.387906859739
 20
3799.108421943142
 30
0.0
 10
3459.843106873502
 20
3799.887795922433
 30
0.0
 10
3459.310006886969
 20
3800.652495903116
 30
0.0
 10
3459.018406894335
 20
3801.575295879803
 30
0.0
 10
3459.018406894335
 20
3802.585995854271
 30
0.0
 10
3459.018406894335
 20
3803.148495840061
 30
0.0
 10
3459.113506891932
 20
3803.740421943141
 30
0.0
 10
3459.311206886938
 20
3804.340695809944
 30
0.0
  0
SPLINE
  5
4E1
330
1F
100
AcDbEntity
  8
0
  6
Continuous
 62
     7
370
    18
100
AcDbSpline
210
0.0
220
0.0
230
1.0
 70
     8
 71
     3
 72
    11
 73
     7
 74
     0
 42
0.00000001
 43
0.00000001
 40
0.0
 40
0.0
 40
0.0
 40
0.0
 40
1.0
 40
2.0
 40
3.0
 40
4.0
 40
4.0
 40
4.0
 40
4.0
 10
3470.725323866747
 20
3838.796894939507
 30
0.0
 10
3471.170806587339
 20
3840.14149490554
 30
0.0
 10
3472.105323866747
 20
3841.348694875043
 30
0.0
 10
3473.249206534835
 20
3842.209994853285
 30
0.0
 10
3474.419806505263
 20
3843.08899483108
 30
0.0
 10
3475.846606469219
 20
3843.633794817317
 30
0.0
 10
3477.249706433773
 20
3843.633794817317
 30
0.0
  0
SPLINE
  5
4E2
330
1F
100
AcDbEntity
  8
0
  6
Continuous
 62
     7
370
    18
100
AcDbSpline
210
0.0
220
0.0
230
1.0
 70
     8
 71
     3
 72
    17
 73
    13
 74
     0
 42
0.00000001
 43
0.00000001
 40
0.0
 40
0.0
 40
0.0
 40
0.0
 40
1.0
 40
2.0
 40
3.0
 40
4.0
 40
5.0
 40
6.0
 40
7.0
 40
8.0
 40
9.0
 40
10.0
 40
10.0
 40
10.0
 40
10.0
 10
3484.972606238676
 20
3843.633794817317
 30
0.0
 10
3485.571706223542
 20
3843.633794817317
 30
0.0
 10
3486.136906209264
 20
3843.537194819757
 30
0.0
 10
3486.65560619616
 20
3843.358421943142
 30
0.0
 10
3487.603323866747
 20
3843.030194832565
 30
0.0
 10
3488.373706152757
 20
3842.441294847442
 30
0.0
 10
3488.914323866747
 20
3841.665194867048
 30
0.0
 10
3489.44320612574
 20
3840.903194886297
 30
0.0
 10
3489.733323866748
 20
3839.989421943137
 30
0.0
 10
3489.733323866748
 20
3838.996094934475
 30
0.0
 10
3489.733323866748
 20
3838.418894949057
 30
0.0
 10
3489.63520612089
 20
3837.812594964372
 30
0.0
 10
3489.424006126225
 20
3837.203294979765
 30
0.0
  0
SPLINE
  5
4E3
330
1F
100
AcDbEntity
  8
0
  6
Continuous
 62
     7
370
    18
100
AcDbSpline
210
0.0
220
0.0
230
1.0
 70
     8
 71
     3
 72
    11
 73
     7
 74
     0
 42
0.00000001
 43
0.00000001
 40
0.0
 40
0.0
 40
0.0
 40
0.0
 40
1.0
 40
2.0
 40
3.0
 40
4.0
 40
4.0
 40
4.0
 40
4.0
 10
3372.198409087592
 20
3838.627094943796
 30
0.0
 10
3371.886409095474
 20
3838.627094943796
 30
0.0
 10
3371.524609104614
 20
3838.471694947722
 30
0.0
 10
3371.189209113087
 20
3838.219694954089
 30
0.0
 10
3370.830409122151
 20
3837.950294960893
 30
0.0
 10
3370.544809129366
 20
3837.598694969776
 30
0.0
 10
3370.423009132443
 20
3837.232421943138
 30
0.0
  0
SPLINE
  5
4E4
330
1F
100
AcDbEntity
  8
0
  6
Continuous
 62
     7
370
    18
100
AcDbSpline
210
0.0
220
0.0
230
1.0
 70
     8
 71
     3
 72
    11
 73
     7
 74
     0
 42
0.00000001
 43
0.00000001
 40
0.0
 40
0.0
 40
0.0
 40
0.0
 40
1.0
 40
2.0
 40
3.0
 40
4.0
 40
4.0
 40
4.0
 40
4.0
 10
3367.735009200348
 20
3802.943295845246
 30
0.0
 10
3368.045809192496
 20
3802.943295845246
 30
0.0
 10
3368.409109183318
 20
3803.098695841319
 30
0.0
 10
3368.744509174846
 20
3803.350695834953
 30
0.0
 10
3369.103323866748
 20
3803.620095828148
 30
0.0
 10
3369.387409158605
 20
3803.971695819266
 30
0.0
 10
3369.509209155528
 20
3804.340695809944
 30
0.0
  0
SPLINE
  5
4E5
330
1F
100
AcDbEntity
  8
0
  6
Continuous
 62
     7
370
    18
100
AcDbSpline
210
0.0
220
0.0
230
1.0
 70
     8
 71
     3
 72
    17
 73
    13
 74
     0
 42
0.00000001
 43
0.00000001
 40
0.0
 40
0.0
 40
0.0
 40
0.0
 40
1.0
 40
2.0
 40
3.0
 40
4.0
 40
5.0
 40
6.0
 40
7.0
 40
8.0
 40
9.0
 40
10.0
 40
10.0
 40
10.0
 40
10.0
 10
3381.213108859862
 20
3843.633794817316
 30
0.0
 10
3381.790323866745
 20
3843.633794817317
 30
0.0
 10
3382.335108831518
 20
3843.542894819613
 30
0.0
 10
3382.839108818786
 20
3843.378794823758
 30
0.0
 10
3383.811708794216
 20
3843.053594831975
 30
0.0
 10
3384.597108774375
 20
3842.464994846843
 30
0.0
 10
3385.141908760612
 20
3841.682594866608
 30
0.0
 10
3385.675008747145
 20
3840.920894885851
 30
0.0
 10
3385.966608739779
 20
3839.995094909238
 30
0.0
 10
3385.966608739778
 20
3838.987421943141
 30
0.0
 10
3385.966608739778
 20
3838.42189494898
 30
0.0
 10
3385.871508742181
 20
3837.829994963933
 30
0.0
 10
3385.672323866748
 20
3837.232421943138
 30
0.0
  0
SPLINE
  5
4E6
330
1F
100
AcDbEntity
  8
0
  6
Continuous
 62
     7
370
    18
100
AcDbSpline
210
0.0
220
0.0
230
1.0
 70
     8
 71
     3
 72
    11
 73
     7
 74
     0
 42
0.00000001
 43
0.00000001
 40
0.0
 40
0.0
 40
0.0
 40
0.0
 40
1.0
 40
2.0
 40
3.0
 40
4.0
 40
4.0
 40
4.0
 40
4.0
 10
3374.25970903552
 20
3802.776495849459
 30
0.0
 10
3373.814209046774
 20
3801.431595883434
 30
0.0
 10
3372.879709070381
 20
3800.221695913998
 30
0.0
 10
3371.734323866746
 20
3799.363421943139
 30
0.0
 10
3370.565209128851
 20
3798.48442194314
 30
0.0
 10
3369.136909164932
 20
3797.93959597165
 30
0.0
 10
3367.735009200348
 20
3797.93959597165
 30
0.0
  0
SPLINE
  5
4E7
330
1F
100
AcDbEntity
  8
0
  6
Continuous
 62
     7
370
    18
100
AcDbSpline
210
0.0
220
0.0
230
1.0
 70
     8
 71
     3
 72
    17
 73
    13
 74
     0
 42
0.00000001
 43
0.00000001
 40
0.0
 40
0.0
 40
0.0
 40
0.0
 40
1.0
 40
2.0
 40
3.0
 40
4.0
 40
5.0
 40
6.0
 40
7.0
 40
8.0
 40
9.0
 40
10.0
 40
10.0
 40
10.0
 40
10.0
 10
3358.719109428108
 20
3797.93959597165
 30
0.0
 10
3358.14190944269
 20
3797.93959597165
 30
0.0
 10
3357.597109456453
 20
3798.02749596943
 30
0.0
 10
3357.094609469147
 20
3798.194295965216
 30
0.0
 10
3356.120509493755
 20
3798.516495957076
 30
0.0
 10
3355.335109513596
 20
3799.108421943142
 30
0.0
 10
3354.790323866746
 20
3799.887795922434
 30
0.0
 10
3354.257209540825
 20
3800.652495903116
 30
0.0
 10
3353.967109548154
 20
3801.575295879803
 30
0.0
 10
3353.967109548154
 20
3802.585995854271
 30
0.0
 10
3353.967109548154
 20
3803.148495840061
 30
0.0
 10
3354.06070954579
 20
3803.740421943141
 30
0.0
 10
3354.26020954075
 20
3804.340695809944
 30
0.0
  0
SPLINE
  5
4E8
330
1F
100
AcDbEntity
  8
0
  6
Continuous
 62
     7
370
    18
100
AcDbSpline
210
0.0
220
0.0
230
1.0
 70
     8
 71
     3
 72
    11
 73
     7
 74
     0
 42
0.00000001
 43
0.00000001
 40
0.0
 40
0.0
 40
0.0
 40
0.0
 40
1.0
 40
2.0
 40
3.0
 40
4.0
 40
4.0
 40
4.0
 40
4.0
 10
3365.672509252451
 20
3838.796894939507
 30
0.0
 10
3366.119509241159
 20
3840.14149490554
 30
0.0
 10
3367.052509217589
 20
3841.348694875043
 30
0.0
 10
3368.197909188654
 20
3842.209994853285
 30
0.0
 10
3369.36700915912
 20
3843.08899483108
 30
0.0
 10
3370.795323866745
 20
3843.633794817317
 30
0.0
 10
3372.198409087592
 20
3843.633794817317
 30
0.0
  0
SPLINE
  5
4E9
330
1F
100
AcDbEntity
  8
0
  6
Continuous
 62
     7
370
    18
100
AcDbSpline
210
0.0
220
0.0
230
1.0
 70
     8
 71
     3
 72
    11
 73
     7
 74
     0
 42
0.00000001
 43
0.00000001
 40
0.0
 40
0.0
 40
0.0
 40
0.0
 40
1.0
 40
2.0
 40
3.0
 40
4.0
 40
4.0
 40
4.0
 40
4.0
 10
3340.984323866746
 20
3838.627094943796
 30
0.0
 10
3340.673509883979
 20
3838.627094943796
 30
0.0
 10
3340.310209893157
 20
3838.471694947722
 30
0.0
 10
3339.974809901629
 20
3838.219694954089
 30
0.0
 10
3339.616009910694
 20
3837.950294960893
 30
0.0
 10
3339.33190991787
 20
3837.598694969776
 30
0.0
 10
3339.210109920947
 20
3837.232421943138
 30
0.0
  0
SPLINE
  5
4EA
330
1F
100
AcDbEntity
  8
0
  6
Continuous
 62
     7
370
    18
100
AcDbSpline
210
0.0
220
0.0
230
1.0
 70
     8
 71
     3
 72
    11
 73
     7
 74
     0
 42
0.00000001
 43
0.00000001
 40
0.0
 40
0.0
 40
0.0
 40
0.0
 40
1.0
 40
2.0
 40
3.0
 40
4.0
 40
4.0
 40
4.0
 40
4.0
 10
3336.520909988882
 20
3802.943295845246
 30
0.0
 10
3336.832909981001
 20
3802.943295845246
 30
0.0
 10
3337.19470997186
 20
3803.098695841319
 30
0.0
 10
3337.530109963388
 20
3803.350695834953
 30
0.0
 10
3337.888909954323
 20
3803.620095828148
 30
0.0
 10
3338.174509947109
 20
3803.971695819266
 30
0.0
 10
3338.296323866747
 20
3804.340695809944
 30
0.0
  0
SPLINE
  5
4EB
330
1F
100
AcDbEntity
  8
0
  6
Continuous
 62
     7
370
    18
100
AcDbSpline
210
0.0
220
0.0
230
1.0
 70
     8
 71
     3
 72
    17
 73
    13
 74
     0
 42
0.00000001
 43
0.00000001
 40
0.0
 40
0.0
 40
0.0
 40
0.0
 40
1.0
 40
2.0
 40
3.0
 40
4.0
 40
5.0
 40
6.0
 40
7.0
 40
8.0
 40
9.0
 40
10.0
 40
10.0
 40
10.0
 40
10.0
 10
3350.000209648367
 20
3843.633794817317
 30
0.0
 10
3350.577409633785
 20
3843.633794817317
 30
0.0
 10
3351.121009620053
 20
3843.542894819612
 30
0.0
 10
3351.624709607328
 20
3843.378794823758
 30
0.0
 10
3352.59880958272
 20
3843.053594831974
 30
0.0
 10
3353.38420956288
 20
3842.464994846843
 30
0.0
 10
3353.929009549116
 20
3841.682594866608
 30
0.0
 10
3354.462109535649
 20
3840.920894885851
 30
0.0
 10
3354.75220952832
 20
3839.995094909238
 30
0.0
 10
3354.75220952832
 20
3838.987421943141
 30
0.0
 10
3354.75220952832
 20
3838.42189494898
 30
0.0
 10
3354.658609530685
 20
3837.829994963933
 30
0.0
 10
3354.459409535717
 20
3837.232421943138
 30
0.0
  0
SPLINE
  5
4EC
330
1F
100
AcDbEntity
  8
0
  6
Continuous
 62
     7
370
    18
100
AcDbSpline
210
0.0
220
0.0
230
1.0
 70
     8
 71
     3
 72
    11
 73
     7
 74
     0
 42
0.00000001
 43
0.00000001
 40
0.0
 40
0.0
 40
0.0
 40
0.0
 40
1.0
 40
2.0
 40
3.0
 40
4.0
 40
4.0
 40
4.0
 40
4.0
 10
3343.046809824023
 20
3802.776495849459
 30
0.0
 10
3342.599809835316
 20
3801.431595883433
 30
0.0
 10
3341.666809858885
 20
3800.221695913998
 30
0.0
 10
3340.521409887821
 20
3799.363421943138
 30
0.0
 10
3339.352323866746
 20
3798.48442194314
 30
0.0
 10
3337.924009953437
 20
3797.939595971649
 30
0.0
 10
3336.520909988882
 20
3797.939595971649
 30
0.0
  0
SPLINE
  5
4ED
330
1F
100
AcDbEntity
  8
0
  6
Continuous
 62
     7
370
    18
100
AcDbSpline
210
0.0
220
0.0
230
1.0
 70
     8
 71
     3
 72
    17
 73
    13
 74
     0
 42
0.00000001
 43
0.00000001
 40
0.0
 40
0.0
 40
0.0
 40
0.0
 40
1.0
 40
2.0
 40
3.0
 40
4.0
 40
5.0
 40
6.0
 40
7.0
 40
8.0
 40
9.0
 40
10.0
 40
10.0
 40
10.0
 40
10.0
 10
3327.506210216612
 20
3797.939595971648
 30
0.0
 10
3326.929010231194
 20
3797.939595971649
 30
0.0
 10
3326.384210244957
 20
3798.027495969428
 30
0.0
 10
3325.881710257651
 20
3798.194295965214
 30
0.0
 10
3324.907610282258
 20
3798.516495957075
 30
0.0
 10
3324.122510302091
 20
3799.108421943142
 30
0.0
 10
3323.577410315862
 20
3799.887795922433
 30
0.0
 10
3323.044323866747
 20
3800.652495903116
 30
0.0
 10
3322.752710336696
 20
3801.575295879803
 30
0.0
 10
3322.752710336696
 20
3802.585995854271
 30
0.0
 10
3322.752710336696
 20
3803.148495840061
 30
0.0
 10
3322.847810334293
 20
3803.740421943141
 30
0.0
 10
3323.047323866748
 20
3804.340695809944
 30
0.0
  0
SPLINE
  5
4EE
330
1F
100
AcDbEntity
  8
0
  6
Continuous
 62
     7
370
    18
100
AcDbSpline
210
0.0
220
0.0
230
1.0
 70
     8
 71
     3
 72
    11
 73
     7
 74
     0
 42
0.00000001
 43
0.00000001
 40
0.0
 40
0.0
 40
0.0
 40
0.0
 40
1.0
 40
2.0
 40
3.0
 40
4.0
 40
4.0
 40
4.0
 40
4.0
 10
3334.459910040948
 20
3838.796894939507
 30
0.0
 10
3334.905110029701
 20
3840.14149490554
 30
0.0
 10
3335.839610006093
 20
3841.348694875043
 30
0.0
 10
3336.983809977188
 20
3842.209994853285
 30
0.0
 10
3338.154109947624
 20
3843.08899483108
 30
0.0
 10
3339.58090991158
 20
3843.633794817317
 30
0.0
 10
3340.984323866746
 20
3843.633794817317
 30
0.0
  0
SPLINE
  5
4EF
330
1F
100
AcDbEntity
  8
0
  6
Continuous
 62
     7
370
    18
100
AcDbSpline
210
0.0
220
0.0
230
1.0
 70
     8
 71
     3
 72
     8
 73
     4
 74
     0
 42
0.00000001
 43
0.00000001
 40
4.0
 40
4.0
 40
4.0
 40
4.0
 40
5.0
 40
5.0
 40
5.0
 40
5.0
 10
3509.225805625989
 20
4116.859421943139
 30
0.0
 10
3509.426505620919
 20
4116.849187915315
 30
0.0
 10
3578.984803863729
 20
4113.93708798888
 30
0.0
 10
3571.292804058045
 20
4037.097489930012
 30
0.0
  0
SPLINE
  5
4F0
330
1F
100
AcDbEntity
  8
0
  6
Continuous
 62
     7
370
    18
100
AcDbSpline
210
0.0
220
0.0
230
1.0
 70
     8
 71
     3
 72
     8
 73
     4
 74
     0
 42
0.00000001
 43
0.00000001
 40
6.0
 40
6.0
 40
6.0
 40
6.0
 40
7.0
 40
7.0
 40
7.0
 40
7.0
 10
3571.156604061486
 20
4035.855489961388
 30
0.0
 10
3571.115504062524
 20
4035.617589967398
 30
0.0
 10
3557.746004400266
 20
3952.791492059762
 30
0.0
 10
3474.496006503338
 20
3949.563492141307
 30
0.0
  0
SPLINE
  5
4F1
330
1F
100
AcDbEntity
  8
0
  6
Continuous
 62
     7
370
    18
100
AcDbSpline
210
0.0
220
0.0
230
1.0
 70
     8
 71
     3
 72
     8
 73
     4
 74
     0
 42
0.00000001
 43
0.00000001
 40
1.0
 40
1.0
 40
1.0
 40
1.0
 40
2.0
 40
2.0
 40
2.0
 40
2.0
 10
3319.323410423327
 20
3843.633794817317
 30
0.0
 10
3319.900610408746
 20
3843.633794817317
 30
0.0
 10
3320.445710394976
 20
3843.542894819612
 30
0.0
 10
3320.947910382289
 20
3843.378794823758
 30
0.0
  0
SPLINE
  5
4F2
330
1F
100
AcDbEntity
  8
0
  6
Continuous
 62
     7
370
    18
100
AcDbSpline
210
0.0
220
0.0
230
1.0
 70
     8
 71
     3
 72
     8
 73
     4
 74
     0
 42
0.00000001
 43
0.00000001
 40
2.0
 40
2.0
 40
2.0
 40
2.0
 40
3.0
 40
3.0
 40
3.0
 40
3.0
 10
3320.947910382289
 20
3843.378794823758
 30
0.0
 10
3321.923510357644
 20
3843.053594831974
 30
0.0
 10
3322.707410337841
 20
3842.464994846843
 30
0.0
 10
3323.25371032404
 20
3841.682594866608
 30
0.0
  0
SPLINE
  5
4F3
330
1F
100
AcDbEntity
  8
0
  6
Continuous
 62
     7
370
    18
100
AcDbSpline
210
0.0
220
0.0
230
1.0
 70
     8
 71
     3
 72
     8
 73
     4
 74
     0
 42
0.00000001
 43
0.00000001
 40
3.0
 40
3.0
 40
3.0
 40
3.0
 40
4.0
 40
4.0
 40
4.0
 40
4.0
 10
3323.25371032404
 20
3841.682594866608
 30
0.0
 10
3323.785323866745
 20
3840.920894885851
 30
0.0
 10
3324.076910303244
 20
3839.995094909238
 30
0.0
 10
3324.076910303244
 20
3838.987421943141
 30
0.0
  0
SPLINE
  5
4F4
330
1F
100
AcDbEntity
  8
0
  6
Continuous
 62
     7
370
    18
100
AcDbSpline
210
0.0
220
0.0
230
1.0
 70
     8
 71
     3
 72
     8
 73
     4
 74
     0
 42
0.00000001
 43
0.00000001
 40
4.0
 40
4.0
 40
4.0
 40
4.0
 40
5.0
 40
5.0
 40
5.0
 40
5.0
 10
3324.076910303244
 20
3838.987421943141
 30
0.0
 10
3324.076910303244
 20
3838.42189494898
 30
0.0
 10
3323.981810305646
 20
3837.829994963933
 30
0.0
 10
3323.78411031064
 20
3837.232421943138
 30
0.0
  0
SPLINE
  5
4F5
330
1F
100
AcDbEntity
  8
0
  6
Continuous
 62
     7
370
    18
100
AcDbSpline
210
0.0
220
0.0
230
1.0
 70
     8
 71
     3
 72
     8
 73
     4
 74
     0
 42
0.00000001
 43
0.00000001
 40
9.0
 40
9.0
 40
9.0
 40
9.0
 40
10.0
 40
10.0
 40
10.0
 40
10.0
 10
3311.498210621009
 20
3838.627094943796
 30
0.0
 10
3311.187710628853
 20
3838.627094943796
 30
0.0
 10
3310.82441063803
 20
3838.471694947722
 30
0.0
 10
3310.489010646503
 20
3838.219694954089
 30
0.0
  0
SPLINE
  5
4F6
330
1F
100
AcDbEntity
  8
0
  6
Continuous
 62
     7
370
    18
100
AcDbSpline
210
0.0
220
0.0
230
1.0
 70
     8
 71
     3
 72
     8
 73
     4
 74
     0
 42
0.00000001
 43
0.00000001
 40
10.0
 40
10.0
 40
10.0
 40
10.0
 40
11.0
 40
11.0
 40
11.0
 40
11.0
 10
3310.489010646503
 20
3838.219694954089
 30
0.0
 10
3310.130210655567
 20
3837.950294960893
 30
0.0
 10
3309.846110662744
 20
3837.598694969776
 30
0.0
 10
3309.724323866746
 20
3837.232421943138
 30
0.0
  0
SPLINE
  5
4F7
330
1F
100
AcDbEntity
  8
0
  6
Continuous
 62
     7
370
    18
100
AcDbSpline
210
0.0
220
0.0
230
1.0
 70
     8
 71
     3
 72
     8
 73
     4
 74
     0
 42
0.00000001
 43
0.00000001
 40
13.0
 40
13.0
 40
13.0
 40
13.0
 40
14.0
 40
14.0
 40
14.0
 40
14.0
 10
3305.844110763843
 20
3802.943295845246
 30
0.0
 10
3306.156110755962
 20
3802.943295845246
 30
0.0
 10
3306.519410746783
 20
3803.101695841244
 30
0.0
 10
3306.85481073831
 20
3803.350695834953
 30
0.0
  0
SPLINE
  5
4F8
330
1F
100
AcDbEntity
  8
0
  6
Continuous
 62
     7
370
    18
100
AcDbSpline
210
0.0
220
0.0
230
1.0
 70
     8
 71
     3
 72
     8
 73
     4
 74
     0
 42
0.00000001
 43
0.00000001
 40
14.0
 40
14.0
 40
14.0
 40
14.0
 40
15.0
 40
15.0
 40
15.0
 40
15.0
 10
3306.854810738311
 20
3803.350695834953
 30
0.0
 10
3307.213610729247
 20
3803.620095828148
 30
0.0
 10
3307.49771072207
 20
3803.971695819266
 30
0.0
 10
3307.619510718993
 20
3804.340695809944
 30
0.0
  0
SPLINE
  5
4F9
330
1F
100
AcDbEntity
  8
0
  6
Continuous
 62
     7
370
    18
100
AcDbSpline
210
0.0
220
0.0
230
1.0
 70
     8
 71
     3
 72
     8
 73
     4
 74
     0
 42
0.00000001
 43
0.00000001
 40
18.0
 40
18.0
 40
18.0
 40
18.0
 40
19.0
 40
19.0
 40
19.0
 40
19.0
 10
3312.370010598985
 20
3802.776495849458
 30
0.0
 10
3311.92451061024
 20
3801.431595883433
 30
0.0
 10
3310.990010633847
 20
3800.221695913998
 30
0.0
 10
3309.844610662783
 20
3799.363421943138
 30
0.0
  0
SPLINE
  5
4FA
330
1F
100
AcDbEntity
  8
0
  6
Continuous
 62
     7
370
    18
100
AcDbSpline
210
0.0
220
0.0
230
1.0
 70
     8
 71
     3
 72
     8
 73
     4
 74
     0
 42
0.00000001
 43
0.00000001
 40
19.0
 40
19.0
 40
19.0
 40
19.0
 40
20.0
 40
20.0
 40
20.0
 40
20.0
 10
3309.844610662782
 20
3799.363421943138
 30
0.0
 10
3308.675510692316
 20
3798.48442194314
 30
0.0
 10
3307.247510728391
 20
3797.939595971649
 30
0.0
 10
3305.844110763843
 20
3797.93959597165
 30
0.0
  0
SPLINE
  5
4FB
330
1F
100
AcDbEntity
  8
0
  6
Continuous
 62
     7
370
    18
100
AcDbSpline
210
0.0
220
0.0
230
1.0
 70
     8
 71
     3
 72
     8
 73
     4
 74
     0
 42
0.00000001
 43
0.00000001
 40
21.0
 40
21.0
 40
21.0
 40
21.0
 40
22.0
 40
22.0
 40
22.0
 40
22.0
 10
3298.020410961487
 20
3797.93959597165
 30
0.0
 10
3297.443210976068
 20
3797.93959597165
 30
0.0
 10
3296.898110989838
 20
3798.027495969428
 30
0.0
 10
3296.395911002525
 20
3798.194295965215
 30
0.0
  0
SPLINE
  5
4FC
330
1F
100
AcDbEntity
  8
0
  6
Continuous
 62
     7
370
    18
100
AcDbSpline
210
0.0
220
0.0
230
1.0
 70
     8
 71
     3
 72
     8
 73
     4
 74
     0
 42
0.00000001
 43
0.00000001
 40
22.0
 40
22.0
 40
22.0
 40
22.0
 40
23.0
 40
23.0
 40
23.0
 40
23.0
 10
3296.395911002525
 20
3798.194295965215
 30
0.0
 10
3295.420323866746
 20
3798.516495957076
 30
0.0
 10
3294.635211047004
 20
3799.108421943142
 30
0.0
 10
3294.090111060774
 20
3799.887795922433
 30
0.0
  0
SPLINE
  5
4FD
330
1F
100
AcDbEntity
  8
0
  6
Continuous
 62
     7
370
    18
100
AcDbSpline
210
0.0
220
0.0
230
1.0
 70
     8
 71
     3
 72
     8
 73
     4
 74
     0
 42
0.00000001
 43
0.00000001
 40
23.0
 40
23.0
 40
23.0
 40
23.0
 40
24.0
 40
24.0
 40
24.0
 40
24.0
 10
3294.090111060774
 20
3799.887795922433
 30
0.0
 10
3293.558511074204
 20
3800.652495903116
 30
0.0
 10
3293.26691108157
 20
3801.575295879803
 30
0.0
 10
3293.26691108157
 20
3802.585995854271
 30
0.0
  0
SPLINE
  5
4FE
330
1F
100
AcDbEntity
  8
0
  6
Continuous
 62
     7
370
    18
100
AcDbSpline
210
0.0
220
0.0
230
1.0
 70
     8
 71
     3
 72
     8
 73
     4
 74
     0
 42
0.00000001
 43
0.00000001
 40
24.0
 40
24.0
 40
24.0
 40
24.0
 40
25.0
 40
25.0
 40
25.0
 40
25.0
 10
3293.26691108157
 20
3802.585995854271
 30
0.0
 10
3293.26691108157
 20
3803.148495840061
 30
0.0
 10
3293.362011079168
 20
3803.740421943141
 30
0.0
 10
3293.560011074166
 20
3804.340695809944
 30
0.0
  0
SPLINE
  5
4FF
330
1F
100
AcDbEntity
  8
0
  6
Continuous
 62
     7
370
    18
100
AcDbSpline
210
0.0
220
0.0
230
1.0
 70
     8
 71
     3
 72
     8
 73
     4
 74
     0
 42
0.00000001
 43
0.00000001
 40
26.0
 40
26.0
 40
26.0
 40
26.0
 40
27.0
 40
27.0
 40
27.0
 40
27.0
 10
3304.972610785859
 20
3838.796894939507
 30
0.0
 10
3305.419323866747
 20
3840.14149490554
 30
0.0
 10
3306.353810750968
 20
3841.348694875043
 30
0.0
 10
3307.49771072207
 20
3842.209994853284
 30
0.0
  0
SPLINE
  5
500
330
1F
100
AcDbEntity
  8
0
  6
Continuous
 62
     7
370
    18
100
AcDbSpline
210
0.0
220
0.0
230
1.0
 70
     8
 71
     3
 72
     8
 73
     4
 74
     0
 42
0.00000001
 43
0.00000001
 40
27.0
 40
27.0
 40
27.0
 40
27.0
 40
28.0
 40
28.0
 40
28.0
 40
28.0
 10
3307.49771072207
 20
3842.209994853284
 30
0.0
 10
3308.668323866746
 20
3843.08899483108
 30
0.0
 10
3310.096610656416
 20
3843.633794817317
 30
0.0
 10
3311.498210621009
 20
3843.633794817317
 30
0.0
  0
SPLINE
  5
501
330
1F
100
AcDbEntity
  8
0
  6
Continuous
 62
     7
370
    18
100
AcDbSpline
210
0.0
220
0.0
230
1.0
 70
     8
 71
     3
 72
     8
 73
     4
 74
     0
 42
0.00000001
 43
0.00000001
 40
2.0
 40
2.0
 40
2.0
 40
2.0
 40
3.0
 40
3.0
 40
3.0
 40
3.0
 10
3477.249706433773
 20
3838.627094943796
 30
0.0
 10
3476.939206441618
 20
3838.627094943796
 30
0.0
 10
3476.575906450795
 20
3838.471694947722
 30
0.0
 10
3476.240506459268
 20
3838.219694954089
 30
0.0
  0
SPLINE
  5
502
330
1F
100
AcDbEntity
  8
0
  6
Continuous
 62
     7
370
    18
100
AcDbSpline
210
0.0
220
0.0
230
1.0
 70
     8
 71
     3
 72
     8
 73
     4
 74
     0
 42
0.00000001
 43
0.00000001
 40
3.0
 40
3.0
 40
3.0
 40
3.0
 40
4.0
 40
4.0
 40
4.0
 40
4.0
 10
3476.240506459268
 20
3838.219694954089
 30
0.0
 10
3475.881706468332
 20
3837.950294960893
 30
0.0
 10
3475.597606475509
 20
3837.598694969776
 30
0.0
 10
3475.475806478586
 20
3837.232421943138
 30
0.0
  0
SPLINE
  5
503
330
1F
100
AcDbEntity
  8
0
  6
Continuous
 62
     7
370
    18
100
AcDbSpline
210
0.0
220
0.0
230
1.0
 70
     8
 71
     3
 72
     8
 73
     4
 74
     0
 42
0.00000001
 43
0.00000001
 40
6.0
 40
6.0
 40
6.0
 40
6.0
 40
7.0
 40
7.0
 40
7.0
 40
7.0
 10
3471.494506579162
 20
3802.943295845246
 30
0.0
 10
3471.805006571318
 20
3802.943295845246
 30
0.0
 10
3472.168323866746
 20
3803.101695841244
 30
0.0
 10
3472.503706553667
 20
3803.350695834953
 30
0.0
  0
SPLINE
  5
504
330
1F
100
AcDbEntity
  8
0
  6
Continuous
 62
     7
370
    18
100
AcDbSpline
210
0.0
220
0.0
230
1.0
 70
     8
 71
     3
 72
     8
 73
     4
 74
     0
 42
0.00000001
 43
0.00000001
 40
7.0
 40
7.0
 40
7.0
 40
7.0
 40
8.0
 40
8.0
 40
8.0
 40
8.0
 10
3472.503706553667
 20
3803.350695834953
 30
0.0
 10
3472.862506544603
 20
3803.620095828148
 30
0.0
 10
3473.146906537419
 20
3803.971695819266
 30
0.0
 10
3473.268406534349
 20
3804.340695809944
 30
0.0
  0
SPLINE
  5
505
330
1F
100
AcDbEntity
  8
0
  6
Continuous
 62
     7
370
    18
100
AcDbSpline
210
0.0
220
0.0
230
1.0
 70
     8
 71
     3
 72
     8
 73
     4
 74
     0
 42
0.00000001
 43
0.00000001
 40
14.0
 40
14.0
 40
14.0
 40
14.0
 40
15.0
 40
15.0
 40
15.0
 40
15.0
 10
3478.020406414304
 20
3802.776495849459
 30
0.0
 10
3477.573406425596
 20
3801.431595883434
 30
0.0
 10
3476.638906449203
 20
3800.221695913998
 30
0.0
 10
3475.495006478101
 20
3799.363421943139
 30
0.0
  0
SPLINE
  5
506
330
1F
100
AcDbEntity
  8
0
  6
Continuous
 62
     7
370
    18
100
AcDbSpline
210
0.0
220
0.0
230
1.0
 70
     8
 71
     3
 72
     8
 73
     4
 74
     0
 42
0.00000001
 43
0.00000001
 40
15.0
 40
15.0
 40
15.0
 40
15.0
 40
16.0
 40
16.0
 40
16.0
 40
16.0
 10
3475.495006478101
 20
3799.363421943139
 30
0.0
 10
3474.324406507673
 20
3798.48442194314
 30
0.0
 10
3472.896406543747
 20
3797.93959597165
 30
0.0
 10
3471.494506579162
 20
3797.93959597165
 30
0.0
  0
SPLINE
  5
507
330
1F
100
AcDbEntity
  8
0
  6
Continuous
 62
     7
370
    18
100
AcDbSpline
210
0.0
220
0.0
230
1.0
 70
     8
 71
     3
 72
     8
 73
     4
 74
     0
 42
0.00000001
 43
0.00000001
 40
17.0
 40
17.0
 40
17.0
 40
17.0
 40
18.0
 40
18.0
 40
18.0
 40
18.0
 10
3463.771906774251
 20
3797.93959597165
 30
0.0
 10
3463.194706788833
 20
3797.939595971651
 30
0.0
 10
3462.649606802603
 20
3798.02749596943
 30
0.0
 10
3462.14740681529
 20
3798.194295965215
 30
0.0
  0
SPLINE
  5
508
330
1F
100
AcDbEntity
  8
0
  6
Continuous
 62
     7
370
    18
100
AcDbSpline
210
0.0
220
0.0
230
1.0
 70
     8
 71
     3
 72
     8
 73
     4
 74
     0
 42
0.00000001
 43
0.00000001
 40
18.0
 40
18.0
 40
18.0
 40
18.0
 40
19.0
 40
19.0
 40
19.0
 40
19.0
 10
3462.14740681529
 20
3798.194295965215
 30
0.0
 10
3461.173006839905
 20
3798.516495957076
 30
0.0
 10
3460.387906859739
 20
3799.108421943142
 30
0.0
 10
3459.843106873502
 20
3799.887795922433
 30
0.0
  0
SPLINE
  5
509
330
1F
100
AcDbEntity
  8
0
  6
Continuous
 62
     7
370
    18
100
AcDbSpline
210
0.0
220
0.0
230
1.0
 70
     8
 71
     3
 72
     8
 73
     4
 74
     0
 42
0.00000001
 43
0.00000001
 40
19.0
 40
19.0
 40
19.0
 40
19.0
 40
20.0
 40
20.0
 40
20.0
 40
20.0
 10
3459.843106873502
 20
3799.887795922433
 30
0.0
 10
3459.310006886969
 20
3800.652495903116
 30
0.0
 10
3459.018406894335
 20
3801.575295879803
 30
0.0
 10
3459.018406894335
 20
3802.585995854271
 30
0.0
  0
SPLINE
  5
50A
330
1F
100
AcDbEntity
  8
0
  6
Continuous
 62
     7
370
    18
100
AcDbSpline
210
0.0
220
0.0
230
1.0
 70
     8
 71
     3
 72
     8
 73
     4
 74
     0
 42
0.00000001
 43
0.00000001
 40
20.0
 40
20.0
 40
20.0
 40
20.0
 40
21.0
 40
21.0
 40
21.0
 40
21.0
 10
3459.018406894335
 20
3802.585995854271
 30
0.0
 10
3459.018406894335
 20
3803.148495840061
 30
0.0
 10
3459.113506891933
 20
3803.740421943141
 30
0.0
 10
3459.311206886938
 20
3804.340695809944
 30
0.0
  0
SPLINE
  5
50B
330
1F
100
AcDbEntity
  8
0
  6
Continuous
 62
     7
370
    18
100
AcDbSpline
210
0.0
220
0.0
230
1.0
 70
     8
 71
     3
 72
     8
 73
     4
 74
     0
 42
0.00000001
 43
0.00000001
 40
22.0
 40
22.0
 40
22.0
 40
22.0
 40
23.0
 40
23.0
 40
23.0
 40
23.0
 10
3470.725323866747
 20
3838.796894939507
 30
0.0
 10
3471.170806587339
 20
3840.14149490554
 30
0.0
 10
3472.105323866747
 20
3841.348694875043
 30
0.0
 10
3473.249206534835
 20
3842.209994853285
 30
0.0
  0
SPLINE
  5
50C
330
1F
100
AcDbEntity
  8
0
  6
Continuous
 62
     7
370
    18
100
AcDbSpline
210
0.0
220
0.0
230
1.0
 70
     8
 71
     3
 72
     8
 73
     4
 74
     0
 42
0.00000001
 43
0.00000001
 40
23.0
 40
23.0
 40
23.0
 40
23.0
 40
24.0
 40
24.0
 40
24.0
 40
24.0
 10
3473.249206534835
 20
3842.209994853285
 30
0.0
 10
3474.419806505263
 20
3843.08899483108
 30
0.0
 10
3475.846606469219
 20
3843.633794817317
 30
0.0
 10
3477.249706433773
 20
3843.633794817317
 30
0.0
  0
SPLINE
  5
50D
330
1F
100
AcDbEntity
  8
0
  6
Continuous
 62
     7
370
    18
100
AcDbSpline
210
0.0
220
0.0
230
1.0
 70
     8
 71
     3
 72
     8
 73
     4
 74
     0
 42
0.00000001
 43
0.00000001
 40
25.0
 40
25.0
 40
25.0
 40
25.0
 40
26.0
 40
26.0
 40
26.0
 40
26.0
 10
3484.972606238677
 20
3843.633794817317
 30
0.0
 10
3485.571706223542
 20
3843.633794817317
 30
0.0
 10
3486.136906209264
 20
3843.537194819757
 30
0.0
 10
3486.655606196161
 20
3843.358421943142
 30
0.0
  0
SPLINE
  5
50E
330
1F
100
AcDbEntity
  8
0
  6
Continuous
 62
     7
370
    18
100
AcDbSpline
210
0.0
220
0.0
230
1.0
 70
     8
 71
     3
 72
     8
 73
     4
 74
     0
 42
0.00000001
 43
0.00000001
 40
26.0
 40
26.0
 40
26.0
 40
26.0
 40
27.0
 40
27.0
 40
27.0
 40
27.0
 10
3486.655606196161
 20
3843.358421943142
 30
0.0
 10
3487.603323866748
 20
3843.030194832565
 30
0.0
 10
3488.373706152757
 20
3842.441294847442
 30
0.0
 10
3488.914323866747
 20
3841.665194867048
 30
0.0
  0
SPLINE
  5
50F
330
1F
100
AcDbEntity
  8
0
  6
Continuous
 62
     7
370
    18
100
AcDbSpline
210
0.0
220
0.0
230
1.0
 70
     8
 71
     3
 72
     8
 73
     4
 74
     0
 42
0.00000001
 43
0.00000001
 40
27.0
 40
27.0
 40
27.0
 40
27.0
 40
28.0
 40
28.0
 40
28.0
 40
28.0
 10
3488.914323866747
 20
3841.665194867048
 30
0.0
 10
3489.44320612574
 20
3840.903194886297
 30
0.0
 10
3489.733323866748
 20
3839.989421943137
 30
0.0
 10
3489.733323866748
 20
3838.996094934475
 30
0.0
  0
SPLINE
  5
510
330
1F
100
AcDbEntity
  8
0
  6
Continuous
 62
     7
370
    18
100
AcDbSpline
210
0.0
220
0.0
230
1.0
 70
     8
 71
     3
 72
     8
 73
     4
 74
     0
 42
0.00000001
 43
0.00000001
 40
28.0
 40
28.0
 40
28.0
 40
28.0
 40
29.0
 40
29.0
 40
29.0
 40
29.0
 10
3489.733323866748
 20
3838.996094934475
 30
0.0
 10
3489.733323866748
 20
3838.418894949057
 30
0.0
 10
3489.63520612089
 20
3837.812594964372
 30
0.0
 10
3489.424006126225
 20
3837.203294979765
 30
0.0
  0
SPLINE
  5
511
330
1F
100
AcDbEntity
  8
0
  6
Continuous
 62
     7
370
    18
100
AcDbSpline
210
0.0
220
0.0
230
1.0
 70
     8
 71
     3
 72
     8
 73
     4
 74
     0
 42
0.00000001
 43
0.00000001
 40
0.0
 40
0.0
 40
0.0
 40
0.0
 40
1.0
 40
1.0
 40
1.0
 40
1.0
 10
3372.198409087592
 20
3838.627094943796
 30
0.0
 10
3371.886409095474
 20
3838.627094943796
 30
0.0
 10
3371.524609104614
 20
3838.471694947722
 30
0.0
 10
3371.189209113087
 20
3838.219694954089
 30
0.0
  0
SPLINE
  5
512
330
1F
100
AcDbEntity
  8
0
  6
Continuous
 62
     7
370
    18
100
AcDbSpline
210
0.0
220
0.0
230
1.0
 70
     8
 71
     3
 72
     8
 73
     4
 74
     0
 42
0.00000001
 43
0.00000001
 40
1.0
 40
1.0
 40
1.0
 40
1.0
 40
2.0
 40
2.0
 40
2.0
 40
2.0
 10
3371.189209113087
 20
3838.219694954089
 30
0.0
 10
3370.830409122151
 20
3837.950294960893
 30
0.0
 10
3370.544809129366
 20
3837.598694969776
 30
0.0
 10
3370.423009132443
 20
3837.232421943138
 30
0.0
  0
SPLINE
  5
513
330
1F
100
AcDbEntity
  8
0
  6
Continuous
 62
     7
370
    18
100
AcDbSpline
210
0.0
220
0.0
230
1.0
 70
     8
 71
     3
 72
     8
 73
     4
 74
     0
 42
0.00000001
 43
0.00000001
 40
4.0
 40
4.0
 40
4.0
 40
4.0
 40
5.0
 40
5.0
 40
5.0
 40
5.0
 10
3367.735009200348
 20
3802.943295845246
 30
0.0
 10
3368.045809192496
 20
3802.943295845246
 30
0.0
 10
3368.409109183318
 20
3803.098695841319
 30
0.0
 10
3368.744509174846
 20
3803.350695834953
 30
0.0
  0
SPLINE
  5
514
330
1F
100
AcDbEntity
  8
0
  6
Continuous
 62
     7
370
    18
100
AcDbSpline
210
0.0
220
0.0
230
1.0
 70
     8
 71
     3
 72
     8
 73
     4
 74
     0
 42
0.00000001
 43
0.00000001
 40
5.0
 40
5.0
 40
5.0
 40
5.0
 40
6.0
 40
6.0
 40
6.0
 40
6.0
 10
3368.744509174846
 20
3803.350695834953
 30
0.0
 10
3369.103323866748
 20
3803.620095828148
 30
0.0
 10
3369.387409158605
 20
3803.971695819266
 30
0.0
 10
3369.509209155528
 20
3804.340695809944
 30
0.0
  0
SPLINE
  5
515
330
1F
100
AcDbEntity
  8
0
  6
Continuous
 62
     7
370
    18
100
AcDbSpline
210
0.0
220
0.0
230
1.0
 70
     8
 71
     3
 72
     8
 73
     4
 74
     0
 42
0.00000001
 43
0.00000001
 40
1.0
 40
1.0
 40
1.0
 40
1.0
 40
2.0
 40
2.0
 40
2.0
 40
2.0
 10
3381.213108859862
 20
3843.633794817316
 30
0.0
 10
3381.790323866746
 20
3843.633794817316
 30
0.0
 10
3382.335108831518
 20
3843.542894819612
 30
0.0
 10
3382.839108818786
 20
3843.378794823758
 30
0.0
  0
SPLINE
  5
516
330
1F
100
AcDbEntity
  8
0
  6
Continuous
 62
     7
370
    18
100
AcDbSpline
210
0.0
220
0.0
230
1.0
 70
     8
 71
     3
 72
     8
 73
     4
 74
     0
 42
0.00000001
 43
0.00000001
 40
2.0
 40
2.0
 40
2.0
 40
2.0
 40
3.0
 40
3.0
 40
3.0
 40
3.0
 10
3382.839108818786
 20
3843.378794823758
 30
0.0
 10
3383.811708794216
 20
3843.053594831974
 30
0.0
 10
3384.597108774375
 20
3842.464994846843
 30
0.0
 10
3385.141908760612
 20
3841.682594866608
 30
0.0
  0
SPLINE
  5
517
330
1F
100
AcDbEntity
  8
0
  6
Continuous
 62
     7
370
    18
100
AcDbSpline
210
0.0
220
0.0
230
1.0
 70
     8
 71
     3
 72
     8
 73
     4
 74
     0
 42
0.00000001
 43
0.00000001
 40
3.0
 40
3.0
 40
3.0
 40
3.0
 40
4.0
 40
4.0
 40
4.0
 40
4.0
 10
3385.141908760612
 20
3841.682594866608
 30
0.0
 10
3385.675008747145
 20
3840.920894885851
 30
0.0
 10
3385.966608739778
 20
3839.995094909238
 30
0.0
 10
3385.966608739778
 20
3838.987421943141
 30
0.0
  0
SPLINE
  5
518
330
1F
100
AcDbEntity
  8
0
  6
Continuous
 62
     7
370
    18
100
AcDbSpline
210
0.0
220
0.0
230
1.0
 70
     8
 71
     3
 72
     8
 73
     4
 74
     0
 42
0.00000001
 43
0.00000001
 40
4.0
 40
4.0
 40
4.0
 40
4.0
 40
5.0
 40
5.0
 40
5.0
 40
5.0
 10
3385.966608739778
 20
3838.987421943141
 30
0.0
 10
3385.966608739778
 20
3838.42189494898
 30
0.0
 10
3385.871508742181
 20
3837.829994963933
 30
0.0
 10
3385.672323866748
 20
3837.232421943138
 30
0.0
  0
SPLINE
  5
519
330
1F
100
AcDbEntity
  8
0
  6
Continuous
 62
     7
370
    18
100
AcDbSpline
210
0.0
220
0.0
230
1.0
 70
     8
 71
     3
 72
     8
 73
     4
 74
     0
 42
0.00000001
 43
0.00000001
 40
6.0
 40
6.0
 40
6.0
 40
6.0
 40
7.0
 40
7.0
 40
7.0
 40
7.0
 10
3374.25970903552
 20
3802.776495849459
 30
0.0
 10
3373.814209046774
 20
3801.431595883434
 30
0.0
 10
3372.879709070381
 20
3800.221695913998
 30
0.0
 10
3371.734323866746
 20
3799.36342194314
 30
0.0
  0
SPLINE
  5
51A
330
1F
100
AcDbEntity
  8
0
  6
Continuous
 62
     7
370
    18
100
AcDbSpline
210
0.0
220
0.0
230
1.0
 70
     8
 71
     3
 72
     8
 73
     4
 74
     0
 42
0.00000001
 43
0.00000001
 40
7.0
 40
7.0
 40
7.0
 40
7.0
 40
8.0
 40
8.0
 40
8.0
 40
8.0
 10
3371.734323866746
 20
3799.36342194314
 30
0.0
 10
3370.565209128851
 20
3798.48442194314
 30
0.0
 10
3369.136909164932
 20
3797.93959597165
 30
0.0
 10
3367.735009200348
 20
3797.93959597165
 30
0.0
  0
SPLINE
  5
51B
330
1F
100
AcDbEntity
  8
0
  6
Continuous
 62
     7
370
    18
100
AcDbSpline
210
0.0
220
0.0
230
1.0
 70
     8
 71
     3
 72
     8
 73
     4
 74
     0
 42
0.00000001
 43
0.00000001
 40
9.0
 40
9.0
 40
9.0
 40
9.0
 40
10.0
 40
10.0
 40
10.0
 40
10.0
 10
3358.719109428108
 20
3797.93959597165
 30
0.0
 10
3358.141909442689
 20
3797.93959597165
 30
0.0
 10
3357.597109456452
 20
3798.027495969429
 30
0.0
 10
3357.094609469146
 20
3798.194295965215
 30
0.0
  0
SPLINE
  5
51C
330
1F
100
AcDbEntity
  8
0
  6
Continuous
 62
     7
370
    18
100
AcDbSpline
210
0.0
220
0.0
230
1.0
 70
     8
 71
     3
 72
     8
 73
     4
 74
     0
 42
0.00000001
 43
0.00000001
 40
10.0
 40
10.0
 40
10.0
 40
10.0
 40
11.0
 40
11.0
 40
11.0
 40
11.0
 10
3357.094609469146
 20
3798.194295965215
 30
0.0
 10
3356.120509493755
 20
3798.516495957076
 30
0.0
 10
3355.335109513596
 20
3799.108421943142
 30
0.0
 10
3354.790323866746
 20
3799.887795922433
 30
0.0
  0
SPLINE
  5
51D
330
1F
100
AcDbEntity
  8
0
  6
Continuous
 62
     7
370
    18
100
AcDbSpline
210
0.0
220
0.0
230
1.0
 70
     8
 71
     3
 72
     8
 73
     4
 74
     0
 42
0.00000001
 43
0.00000001
 40
11.0
 40
11.0
 40
11.0
 40
11.0
 40
12.0
 40
12.0
 40
12.0
 40
12.0
 10
3354.790323866746
 20
3799.887795922433
 30
0.0
 10
3354.257209540825
 20
3800.652495903116
 30
0.0
 10
3353.967109548154
 20
3801.575295879803
 30
0.0
 10
3353.967109548154
 20
3802.585995854271
 30
0.0
  0
SPLINE
  5
51E
330
1F
100
AcDbEntity
  8
0
  6
Continuous
 62
     7
370
    18
100
AcDbSpline
210
0.0
220
0.0
230
1.0
 70
     8
 71
     3
 72
     8
 73
     4
 74
     0
 42
0.00000001
 43
0.00000001
 40
12.0
 40
12.0
 40
12.0
 40
12.0
 40
13.0
 40
13.0
 40
13.0
 40
13.0
 10
3353.967109548154
 20
3802.585995854271
 30
0.0
 10
3353.967109548154
 20
3803.148495840061
 30
0.0
 10
3354.06070954579
 20
3803.740421943141
 30
0.0
 10
3354.26020954075
 20
3804.340695809944
 30
0.0
  0
SPLINE
  5
51F
330
1F
100
AcDbEntity
  8
0
  6
Continuous
 62
     7
370
    18
100
AcDbSpline
210
0.0
220
0.0
230
1.0
 70
     8
 71
     3
 72
     8
 73
     4
 74
     0
 42
0.00000001
 43
0.00000001
 40
14.0
 40
14.0
 40
14.0
 40
14.0
 40
15.0
 40
15.0
 40
15.0
 40
15.0
 10
3365.672509252451
 20
3838.796894939507
 30
0.0
 10
3366.119509241159
 20
3840.14149490554
 30
0.0
 10
3367.052509217589
 20
3841.348694875043
 30
0.0
 10
3368.197909188654
 20
3842.209994853285
 30
0.0
  0
SPLINE
  5
520
330
1F
100
AcDbEntity
  8
0
  6
Continuous
 62
     7
370
    18
100
AcDbSpline
210
0.0
220
0.0
230
1.0
 70
     8
 71
     3
 72
     8
 73
     4
 74
     0
 42
0.00000001
 43
0.00000001
 40
15.0
 40
15.0
 40
15.0
 40
15.0
 40
16.0
 40
16.0
 40
16.0
 40
16.0
 10
3368.197909188654
 20
3842.209994853285
 30
0.0
 10
3369.36700915912
 20
3843.08899483108
 30
0.0
 10
3370.795323866745
 20
3843.633794817317
 30
0.0
 10
3372.198409087592
 20
3843.633794817317
 30
0.0
  0
SPLINE
  5
521
330
1F
100
AcDbEntity
  8
0
  6
Continuous
 62
     7
370
    18
100
AcDbSpline
210
0.0
220
0.0
230
1.0
 70
     8
 71
     3
 72
     8
 73
     4
 74
     0
 42
0.00000001
 43
0.00000001
 40
0.0
 40
0.0
 40
0.0
 40
0.0
 40
1.0
 40
1.0
 40
1.0
 40
1.0
 10
3340.984323866746
 20
3838.627094943796
 30
0.0
 10
3340.673509883979
 20
3838.627094943796
 30
0.0
 10
3340.310209893157
 20
3838.471694947722
 30
0.0
 10
3339.97480990163
 20
3838.219694954087
 30
0.0
  0
SPLINE
  5
522
330
1F
100
AcDbEntity
  8
0
  6
Continuous
 62
     7
370
    18
100
AcDbSpline
210
0.0
220
0.0
230
1.0
 70
     8
 71
     3
 72
     8
 73
     4
 74
     0
 42
0.00000001
 43
0.00000001
 40
1.0
 40
1.0
 40
1.0
 40
1.0
 40
2.0
 40
2.0
 40
2.0
 40
2.0
 10
3339.97480990163
 20
3838.219694954088
 30
0.0
 10
3339.616009910694
 20
3837.950294960894
 30
0.0
 10
3339.33190991787
 20
3837.598694969776
 30
0.0
 10
3339.210109920947
 20
3837.232421943138
 30
0.0
  0
SPLINE
  5
523
330
1F
100
AcDbEntity
  8
0
  6
Continuous
 62
     7
370
    18
100
AcDbSpline
210
0.0
220
0.0
230
1.0
 70
     8
 71
     3
 72
     8
 73
     4
 74
     0
 42
0.00000001
 43
0.00000001
 40
4.0
 40
4.0
 40
4.0
 40
4.0
 40
5.0
 40
5.0
 40
5.0
 40
5.0
 10
3336.520909988881
 20
3802.943295845246
 30
0.0
 10
3336.832909981001
 20
3802.943295845246
 30
0.0
 10
3337.19470997186
 20
3803.098695841319
 30
0.0
 10
3337.530109963388
 20
3803.350695834952
 30
0.0
  0
SPLINE
  5
524
330
1F
100
AcDbEntity
  8
0
  6
Continuous
 62
     7
370
    18
100
AcDbSpline
210
0.0
220
0.0
230
1.0
 70
     8
 71
     3
 72
     8
 73
     4
 74
     0
 42
0.00000001
 43
0.00000001
 40
5.0
 40
5.0
 40
5.0
 40
5.0
 40
6.0
 40
6.0
 40
6.0
 40
6.0
 10
3337.530109963388
 20
3803.350695834952
 30
0.0
 10
3337.888909954324
 20
3803.620095828148
 30
0.0
 10
3338.174509947109
 20
3803.971695819266
 30
0.0
 10
3338.296323866747
 20
3804.340695809944
 30
0.0
  0
SPLINE
  5
525
330
1F
100
AcDbEntity
  8
0
  6
Continuous
 62
     7
370
    18
100
AcDbSpline
210
0.0
220
0.0
230
1.0
 70
     8
 71
     3
 72
     8
 73
     4
 74
     0
 42
0.00000001
 43
0.00000001
 40
1.0
 40
1.0
 40
1.0
 40
1.0
 40
2.0
 40
2.0
 40
2.0
 40
2.0
 10
3350.000209648367
 20
3843.633794817317
 30
0.0
 10
3350.577409633785
 20
3843.633794817317
 30
0.0
 10
3351.121009620053
 20
3843.542894819612
 30
0.0
 10
3351.624709607328
 20
3843.378794823758
 30
0.0
  0
SPLINE
  5
526
330
1F
100
AcDbEntity
  8
0
  6
Continuous
 62
     7
370
    18
100
AcDbSpline
210
0.0
220
0.0
230
1.0
 70
     8
 71
     3
 72
     8
 73
     4
 74
     0
 42
0.00000001
 43
0.00000001
 40
2.0
 40
2.0
 40
2.0
 40
2.0
 40
3.0
 40
3.0
 40
3.0
 40
3.0
 10
3351.624709607328
 20
3843.378794823758
 30
0.0
 10
3352.59880958272
 20
3843.053594831974
 30
0.0
 10
3353.38420956288
 20
3842.464994846843
 30
0.0
 10
3353.929009549116
 20
3841.682594866608
 30
0.0
  0
SPLINE
  5
527
330
1F
100
AcDbEntity
  8
0
  6
Continuous
 62
     7
370
    18
100
AcDbSpline
210
0.0
220
0.0
230
1.0
 70
     8
 71
     3
 72
     8
 73
     4
 74
     0
 42
0.00000001
 43
0.00000001
 40
3.0
 40
3.0
 40
3.0
 40
3.0
 40
4.0
 40
4.0
 40
4.0
 40
4.0
 10
3353.929009549116
 20
3841.682594866608
 30
0.0
 10
3354.462109535649
 20
3840.920894885851
 30
0.0
 10
3354.75220952832
 20
3839.995094909238
 30
0.0
 10
3354.75220952832
 20
3838.987421943141
 30
0.0
  0
SPLINE
  5
528
330
1F
100
AcDbEntity
  8
0
  6
Continuous
 62
     7
370
    18
100
AcDbSpline
210
0.0
220
0.0
230
1.0
 70
     8
 71
     3
 72
     8
 73
     4
 74
     0
 42
0.00000001
 43
0.00000001
 40
4.0
 40
4.0
 40
4.0
 40
4.0
 40
5.0
 40
5.0
 40
5.0
 40
5.0
 10
3354.75220952832
 20
3838.987421943141
 30
0.0
 10
3354.75220952832
 20
3838.42189494898
 30
0.0
 10
3354.658609530685
 20
3837.829994963933
 30
0.0
 10
3354.459409535717
 20
3837.232421943138
 30
0.0
  0
SPLINE
  5
529
330
1F
100
AcDbEntity
  8
0
  6
Continuous
 62
     7
370
    18
100
AcDbSpline
210
0.0
220
0.0
230
1.0
 70
     8
 71
     3
 72
     8
 73
     4
 74
     0
 42
0.00000001
 43
0.00000001
 40
6.0
 40
6.0
 40
6.0
 40
6.0
 40
7.0
 40
7.0
 40
7.0
 40
7.0
 10
3343.046809824023
 20
3802.776495849458
 30
0.0
 10
3342.599809835315
 20
3801.431595883433
 30
0.0
 10
3341.666809858885
 20
3800.221695913998
 30
0.0
 10
3340.52140988782
 20
3799.363421943139
 30
0.0
  0
SPLINE
  5
52A
330
1F
100
AcDbEntity
  8
0
  6
Continuous
 62
     7
370
    18
100
AcDbSpline
210
0.0
220
0.0
230
1.0
 70
     8
 71
     3
 72
     8
 73
     4
 74
     0
 42
0.00000001
 43
0.00000001
 40
7.0
 40
7.0
 40
7.0
 40
7.0
 40
8.0
 40
8.0
 40
8.0
 40
8.0
 10
3340.521409887821
 20
3799.363421943139
 30
0.0
 10
3339.352323866746
 20
3798.48442194314
 30
0.0
 10
3337.924009953437
 20
3797.939595971649
 30
0.0
 10
3336.520909988882
 20
3797.939595971649
 30
0.0
  0
SPLINE
  5
52B
330
1F
100
AcDbEntity
  8
0
  6
Continuous
 62
     7
370
    18
100
AcDbSpline
210
0.0
220
0.0
230
1.0
 70
     8
 71
     3
 72
     8
 73
     4
 74
     0
 42
0.00000001
 43
0.00000001
 40
9.0
 40
9.0
 40
9.0
 40
9.0
 40
10.0
 40
10.0
 40
10.0
 40
10.0
 10
3327.506210216612
 20
3797.939595971649
 30
0.0
 10
3326.929010231194
 20
3797.939595971649
 30
0.0
 10
3326.384210244957
 20
3798.027495969428
 30
0.0
 10
3325.881710257651
 20
3798.194295965215
 30
0.0
  0
SPLINE
  5
52C
330
1F
100
AcDbEntity
  8
0
  6
Continuous
 62
     7
370
    18
100
AcDbSpline
210
0.0
220
0.0
230
1.0
 70
     8
 71
     3
 72
     8
 73
     4
 74
     0
 42
0.00000001
 43
0.00000001
 40
10.0
 40
10.0
 40
10.0
 40
10.0
 40
11.0
 40
11.0
 40
11.0
 40
11.0
 10
3325.881710257651
 20
3798.194295965215
 30
0.0
 10
3324.907610282259
 20
3798.516495957076
 30
0.0
 10
3324.122510302092
 20
3799.108421943142
 30
0.0
 10
3323.577410315863
 20
3799.887795922433
 30
0.0
  0
SPLINE
  5
52D
330
1F
100
AcDbEntity
  8
0
  6
Continuous
 62
     7
370
    18
100
AcDbSpline
210
0.0
220
0.0
230
1.0
 70
     8
 71
     3
 72
     8
 73
     4
 74
     0
 42
0.00000001
 43
0.00000001
 40
11.0
 40
11.0
 40
11.0
 40
11.0
 40
12.0
 40
12.0
 40
12.0
 40
12.0
 10
3323.577410315863
 20
3799.887795922433
 30
0.0
 10
3323.044323866747
 20
3800.652495903116
 30
0.0
 10
3322.752710336696
 20
3801.575295879803
 30
0.0
 10
3322.752710336696
 20
3802.585995854271
 30
0.0
  0
SPLINE
  5
52E
330
1F
100
AcDbEntity
  8
0
  6
Continuous
 62
     7
370
    18
100
AcDbSpline
210
0.0
220
0.0
230
1.0
 70
     8
 71
     3
 72
     8
 73
     4
 74
     0
 42
0.00000001
 43
0.00000001
 40
12.0
 40
12.0
 40
12.0
 40
12.0
 40
13.0
 40
13.0
 40
13.0
 40
13.0
 10
3322.752710336696
 20
3802.585995854271
 30
0.0
 10
3322.752710336696
 20
3803.148495840061
 30
0.0
 10
3322.847810334293
 20
3803.740421943141
 30
0.0
 10
3323.047323866748
 20
3804.340695809944
 30
0.0
  0
SPLINE
  5
52F
330
1F
100
AcDbEntity
  8
0
  6
Continuous
 62
     7
370
    18
100
AcDbSpline
210
0.0
220
0.0
230
1.0
 70
     8
 71
     3
 72
     8
 73
     4
 74
     0
 42
0.00000001
 43
0.00000001
 40
14.0
 40
14.0
 40
14.0
 40
14.0
 40
15.0
 40
15.0
 40
15.0
 40
15.0
 10
3334.459910040948
 20
3838.796894939507
 30
0.0
 10
3334.905110029701
 20
3840.14149490554
 30
0.0
 10
3335.839610006093
 20
3841.348694875043
 30
0.0
 10
3336.983809977188
 20
3842.209994853285
 30
0.0
  0
SPLINE
  5
530
330
1F
100
AcDbEntity
  8
0
  6
Continuous
 62
     7
370
    18
100
AcDbSpline
210
0.0
220
0.0
230
1.0
 70
     8
 71
     3
 72
     8
 73
     4
 74
     0
 42
0.00000001
 43
0.00000001
 40
15.0
 40
15.0
 40
15.0
 40
15.0
 40
16.0
 40
16.0
 40
16.0
 40
16.0
 10
3336.983809977188
 20
3842.209994853285
 30
0.0
 10
3338.154109947624
 20
3843.08899483108
 30
0.0
 10
3339.58090991158
 20
3843.633794817317
 30
0.0
 10
3340.984323866746
 20
3843.633794817317
 30
0.0
  0
HATCH
  5
531
330
1F
100
AcDbEntity
  8
0
 62
     7
100
AcDbHatch
 10
0.0
 20
0.0
 30
0.0
210
0.0
220
0.0
230
1.0
  2
SOLID
 70
     1
 71
     0
 91
        2
 92
        0
 93
       15
 72
     1
 10
3296.757710993385
 20
3949.563492141307
 11
3285.166323866746
 21
3984.881891249089
 72
     1
 10
3285.166323866746
 20
3984.881891249089
 11
3354.579409532686
 21
3984.881891249089
 72
     1
 10
3354.579409532686
 20
3984.881891249089
 11
3395.838108490404
 21
4104.92598821652
 72
     1
 10
3395.838108490404
 20
4104.92598821652
 11
3399.939708386788
 21
4116.859421943139
 72
     1
 10
3399.939708386788
 20
4116.859421943139
 11
3509.225805625989
 21
4116.859421943139
 72
     4
 94
        3
 73
     1
 74
     0
 95
        8
 96
        4
 40
0.0
 40
0.0
 40
0.0
 40
0.0
 40
1.0
 40
1.0
 40
1.0
 40
1.0
 10
3509.225805625989
 20
4116.859421943139
 42
1.0
 10
3509.426505620919
 20
4116.849187915315
 42
1.0
 10
3578.984803863729
 20
4113.93708798888
 42
1.0
 10
3571.292804058045
 20
4037.097489930012
 42
1.0
 72
     1
 10
3571.292804058045
 20
4037.097489930012
 11
3571.156604061486
 21
4035.855489961388
 72
     4
 94
        3
 73
     1
 74
     0
 95
        8
 96
        4
 40
0.0
 40
0.0
 40
0.0
 40
0.0
 40
1.0
 40
1.0
 40
1.0
 40
1.0
 10
3571.156604061486
 20
4035.855489961388
 42
1.0
 10
3571.115504062524
 20
4035.617589967398
 42
1.0
 10
3557.746004400266
 20
3952.791492059762
 42
1.0
 10
3474.496006503338
 20
3949.563492141307
 42
1.0
 72
     1
 10
3474.496006503338
 20
3949.563492141307
 11
3379.495008903265
 21
3949.563492141307
 72
     1
 10
3379.495008903265
 20
3949.563492141307
 11
3357.447709460227
 21
3885.414793761839
 72
     1
 10
3357.447709460227
 20
3885.414793761839
 11
4046.243492059781
 21
3885.414793761839
 72
     1
 10
4046.243492059781
 20
3885.414793761839
 11
4057.842091766776
 21
3852.534194592474
 72
     1
 10
4057.842091766776
 20
3852.534194592474
 11
3309.463610672407
 21
3852.534194592474
 72
     1
 10
3309.463610672407
 20
3852.534194592474
 11
3342.44170983931
 21
3949.563492141307
 72
     1
 10
3342.44170983931
 20
3949.563492141307
 11
3296.757710993385
 21
3949.563492141307
 97
        0
 92
        0
 93
        4
 72
     1
 10
3507.447705670908
 20
4081.540688807283
 11
3424.855323866747
 21
4081.540688807283
 72
     1
 10
3424.855323866747
 20
4081.540688807283
 11
3391.634208596603
 21
3984.881891249089
 72
     1
 10
3391.634208596603
 20
3984.881891249089
 11
3473.263906534463
 21
3984.881891249089
 72
     4
 94
        3
 73
     1
 74
     0
 95
       11
 96
        7
 40
0.0
 40
0.0
 40
0.0
 40
0.0
 40
1.0
 40
2.0
 40
3.0
 40
4.0
 40
4.0
 40
4.0
 40
4.0
 10
3473.263906534463
 20
3984.881891249089
 42
1.0
 10
3525.463605215788
 20
3986.906891197934
 42
1.0
 10
3535.793804954825
 20
4037.002689932408
 42
1.0
 10
3536.612504934143
 20
4041.465489819668
 42
1.0
 10
3539.980323866747
 20
4080.202688841084
 42
1.0
 10
3507.541323866747
 20
4081.536188807396
 42
1.0
 10
3507.447705670908
 20
4081.540688807283
 42
1.0
 97
        0
 75
     0
 76
     1
 98
        1
 10
0.0
 20
0.0
  0
HATCH
  5
532
330
1F
100
AcDbEntity
  8
0
 62
     7
100
AcDbHatch
 10
0.0
 20
0.0
 30
0.0
210
0.0
220
0.0
230
1.0
  2
SOLID
 70
     1
 71
     0
 91
        1
 92
        0
 93
        4
 72
     1
 10
3591.925003536832
 20
3906.891493219293
 11
3554.946704470982
 21
3906.891493219293
 72
     1
 10
3554.946704470982
 20
3906.891493219293
 11
3627.490002638385
 21
4116.859421943139
 72
     1
 10
3627.490002638385
 20
4116.859421943139
 11
3664.468601704227
 21
4116.859421943139
 72
     1
 10
3664.468601704227
 20
4116.859421943139
 11
3591.925003536832
 21
3906.891493219293
 97
        0
 75
     0
 76
     1
 98
        1
 10
0.0
 20
0.0
  0
HATCH
  5
533
330
1F
100
AcDbEntity
  8
0
 62
     7
100
AcDbHatch
 10
0.0
 20
0.0
 30
0.0
210
0.0
220
0.0
230
1.0
  2
SOLID
 70
     1
 71
     0
 91
        1
 92
        0
 93
        8
 72
     1
 10
3745.276599662844
 20
3906.891493219293
 11
3708.298000597003
 21
3906.891493219293
 72
     1
 10
3708.298000597003
 20
3906.891493219293
 11
3769.121499060472
 21
4081.826288800068
 72
     1
 10
3769.121499060472
 20
4081.826288800068
 11
3682.152101257503
 21
4081.826288800068
 72
     1
 10
3682.152101257503
 20
4081.826288800068
 11
3692.869000986772
 21
4116.859421943139
 72
     1
 10
3692.869000986772
 20
4116.859421943139
 11
3894.986495880854
 21
4116.859421943139
 72
     1
 10
3894.986495880854
 20
4116.859421943139
 11
3882.224796203242
 21
4081.826288800068
 72
     1
 10
3882.224796203242
 20
4081.826288800068
 11
3806.099798126322
 21
4081.826288800068
 72
     1
 10
3806.099798126322
 20
4081.826288800068
 11
3745.276599662844
 21
3906.891493219293
 97
        0
 75
     0
 76
     1
 98
        1
 10
0.0
 20
0.0
  0
HATCH
  5
534
330
1F
100
AcDbEntity
  8
0
 62
     7
100
AcDbHatch
 10
0.0
 20
0.0
 30
0.0
210
0.0
220
0.0
230
1.0
  2
SOLID
 70
     1
 71
     0
 91
        1
 92
        0
 93
        8
 72
     1
 10
3963.933994139094
 20
3906.891493219293
 11
3926.955395073252
 21
3906.891493219293
 72
     1
 10
3926.955395073252
 20
3906.891493219293
 11
3987.778593536729
 21
4081.826288800068
 72
     1
 10
3987.778593536729
 20
4081.826288800068
 11
3912.468095439232
 21
4081.826288800068
 72
     1
 10
3912.468095439232
 20
4081.826288800068
 11
3923.1849951685
 21
4116.859421943139
 72
     1
 10
3923.1849951685
 20
4116.859421943139
 11
4125.972090045667
 21
4116.859421943139
 72
     1
 10
4125.972090045667
 20
4116.859421943139
 11
4113.210090368062
 21
4081.826288800068
 72
     1
 10
4113.210090368062
 20
4081.826288800068
 11
4024.757192602571
 21
4081.826288800068
 72
     1
 10
4024.757192602571
 20
4081.826288800068
 11
3963.933994139094
 21
3906.891493219293
 97
        0
 75
     0
 76
     1
 98
        1
 10
0.0
 20
0.0
  0
HATCH
  5
535
330
1F
100
AcDbEntity
  8
0
 62
     7
100
AcDbHatch
 10
0.0
 20
0.0
 30
0.0
210
0.0
220
0.0
230
1.0
  2
SOLID
 70
     1
 71
     0
 91
        1
 92
        0
 93
       11
 72
     1
 10
3431.725323866747
 20
3798.156195966177
 11
3426.469607716587
 21
3798.156195966177
 72
     1
 10
3426.469607716587
 20
3798.156195966177
 11
3441.728807331107
 21
3843.305594825608
 72
     1
 10
3441.728807331107
 20
3843.305594825608
 11
3446.303507215541
 21
3843.305594825608
 72
     1
 10
3446.303507215541
 20
3843.305594825608
 11
3446.596607208136
 21
3813.701295573475
 72
     1
 10
3446.596607208136
 20
3813.701295573475
 11
3456.175006966166
 21
3843.305594825608
 72
     1
 10
3456.175006966166
 20
3843.305594825608
 11
3461.419323866747
 21
3843.305594825608
 72
     1
 10
3461.419323866747
 20
3843.305594825608
 11
3446.811707202702
 21
3798.156195966177
 72
     1
 10
3446.811707202702
 20
3798.156195966177
 11
3442.103807321634
 21
3798.156195966177
 72
     1
 10
3442.103807321634
 20
3798.156195966177
 11
3441.712607331516
 21
3798.214995964692
 72
     1
 10
3441.712607331516
 20
3798.214995964692
 11
3441.482807337321
 21
3827.535195224002
 72
     1
 10
3441.482807337321
 20
3827.535195224002
 11
3431.725323866747
 21
3798.156195966177
 97
        0
 75
     0
 76
     1
 98
        1
 10
0.0
 20
0.0
  0
HATCH
  5
536
330
1F
100
AcDbEntity
  8
0
 62
     7
100
AcDbHatch
 10
0.0
 20
0.0
 30
0.0
210
0.0
220
0.0
230
1.0
  2
SOLID
 70
     1
 71
     0
 91
        1
 92
        0
 93
       13
 72
     1
 10
3397.295808453579
 20
3843.305594825608
 11
3402.548508320885
 21
3843.305594825608
 72
     1
 10
3402.548508320885
 20
3843.305594825608
 11
3397.790808441074
 21
3828.67489519521
 72
     1
 10
3397.790808441074
 20
3828.67489519521
 11
3410.280108125568
 21
3843.305594825608
 72
     1
 10
3410.280108125568
 20
3843.305594825608
 11
3416.844107959747
 21
3843.305594825608
 72
     1
 10
3416.844107959747
 20
3843.305594825608
 11
3398.810208415322
 21
3822.182595359219
 72
     1
 10
3398.810208415322
 20
3822.182595359219
 11
3402.31000832691
 21
3798.156195966177
 72
     1
 10
3402.31000832691
 20
3798.156195966177
 11
3397.260408454473
 21
3798.156195966177
 72
     1
 10
3397.260408454473
 20
3798.156195966177
 11
3394.496508524295
 21
3817.131795486813
 72
     1
 10
3394.496508524295
 20
3817.131795486813
 11
3394.351323866748
 21
3816.961995491103
 72
     1
 10
3394.351323866748
 20
3816.961995491103
 11
3394.060008535322
 21
3817.210995484812
 72
     1
 10
3394.060008535322
 20
3817.210995484812
 11
3387.862008691897
 21
3798.156195966177
 72
     1
 10
3387.862008691897
 20
3798.156195966177
 11
3382.609323866746
 21
3798.156195966177
 72
     1
 10
3382.609323866746
 20
3798.156195966177
 11
3397.295808453579
 21
3843.305594825608
 97
        0
 75
     0
 76
     1
 98
        1
 10
0.0
 20
0.0
  0
HATCH
  5
537
330
1F
100
AcDbEntity
  8
0
 62
     7
100
AcDbHatch
 10
0.0
 20
0.0
 30
0.0
210
0.0
220
0.0
230
1.0
  2
SOLID
 70
     1
 71
     0
 91
        1
 92
        0
 93
        4
 72
     1
 10
3425.287323866748
 20
3843.305594825608
 11
3430.541807613715
 21
3843.305594825608
 72
     1
 10
3430.541807613715
 20
3843.305594825608
 11
3415.853807984765
 21
3798.156195966177
 72
     1
 10
3415.853807984765
 20
3798.156195966177
 11
3410.600808117466
 21
3798.156195966177
 72
     1
 10
3410.600808117466
 20
3798.156195966177
 11
3425.287323866748
 21
3843.305594825608
 97
        0
 75
     0
 76
     1
 98
        1
 10
0.0
 20
0.0
  0
HATCH
  5
538
330
1F
100
AcDbEntity
  8
0
 62
     7
100
AcDbHatch
 10
0.0
 20
0.0
 30
0.0
210
0.0
220
0.0
230
1.0
  2
SOLID
 70
     1
 71
     0
 91
        1
 92
        0
 93
       18
 72
     4
 94
        3
 73
     1
 74
     0
 95
       11
 96
        7
 40
0.0
 40
0.0
 40
0.0
 40
0.0
 40
1.0
 40
2.0
 40
3.0
 40
4.0
 40
4.0
 40
4.0
 40
4.0
 10
3304.972610785859
 20
3838.796894939507
 42
1.0
 10
3305.419323866747
 20
3840.14149490554
 42
1.0
 10
3306.353810750967
 20
3841.348694875043
 42
1.0
 10
3307.49771072207
 20
3842.209994853285
 42
1.0
 10
3308.668323866746
 20
3843.08899483108
 42
1.0
 10
3310.096610656416
 20
3843.633794817317
 42
1.0
 10
3311.498210621009
 20
3843.633794817317
 42
1.0
 72
     1
 10
3311.498210621009
 20
3843.633794817317
 11
3319.323410423327
 21
3843.633794817317
 72
     4
 94
        3
 73
     1
 74
     0
 95
       17
 96
       13
 40
0.0
 40
0.0
 40
0.0
 40
0.0
 40
1.0
 40
2.0
 40
3.0
 40
4.0
 40
5.0
 40
6.0
 40
7.0
 40
8.0
 40
9.0
 40
10.0
 40
10.0
 40
10.0
 40
10.0
 10
3319.323410423327
 20
3843.633794817317
 42
1.0
 10
3319.900610408746
 20
3843.633794817317
 42
1.0
 10
3320.445710394976
 20
3843.542894819612
 42
1.0
 10
3320.947910382289
 20
3843.378794823758
 42
1.0
 10
3321.923510357644
 20
3843.053594831974
 42
1.0
 10
3322.707410337841
 20
3842.464994846843
 42
1.0
 10
3323.25371032404
 20
3841.682594866608
 42
1.0
 10
3323.785323866745
 20
3840.920894885851
 42
1.0
 10
3324.076910303244
 20
3839.995094909238
 42
1.0
 10
3324.076910303244
 20
3838.987421943141
 42
1.0
 10
3324.076910303244
 20
3838.42189494898
 42
1.0
 10
3323.981810305646
 20
3837.829994963933
 42
1.0
 10
3323.78411031064
 20
3837.232421943138
 42
1.0
 72
     1
 10
3323.78411031064
 20
3837.232421943138
 11
3321.010910380697
 21
3828.85942194314
 72
     1
 10
3321.010910380697
 20
3828.85942194314
 11
3315.742010513801
 21
3828.85942194314
 72
     1
 10
3315.742010513801
 20
3828.85942194314
 11
3318.977810432058
 21
3838.627094943796
 72
     1
 10
3318.977810432058
 20
3838.627094943796
 11
3311.498210621009
 21
3838.627094943796
 72
     4
 94
        3
 73
     1
 74
     0
 95
       11
 96
        7
 40
0.0
 40
0.0
 40
0.0
 40
0.0
 40
1.0
 40
2.0
 40
3.0
 40
4.0
 40
4.0
 40
4.0
 40
4.0
 10
3311.498210621009
 20
3838.627094943796
 42
1.0
 10
3311.187710628853
 20
3838.627094943796
 42
1.0
 10
3310.82441063803
 20
3838.471694947722
 42
1.0
 10
3310.489010646503
 20
3838.219694954089
 42
1.0
 10
3310.130210655567
 20
3837.950294960893
 42
1.0
 10
3309.846110662744
 20
3837.598694969776
 42
1.0
 10
3309.724323866746
 20
3837.232421943138
 42
1.0
 72
     1
 10
3309.724323866746
 20
3837.232421943138
 11
3298.366010952756
 21
3802.943295845246
 72
     1
 10
3298.366010952756
 20
3802.943295845246
 11
3305.844110763843
 21
3802.943295845246
 72
     4
 94
        3
 73
     1
 74
     0
 95
       11
 96
        7
 40
0.0
 40
0.0
 40
0.0
 40
0.0
 40
1.0
 40
2.0
 40
3.0
 40
4.0
 40
4.0
 40
4.0
 40
4.0
 10
3305.844110763843
 20
3802.943295845246
 42
1.0
 10
3306.156110755962
 20
3802.943295845246
 42
1.0
 10
3306.519410746784
 20
3803.101695841244
 42
1.0
 10
3306.854810738311
 20
3803.350695834953
 42
1.0
 10
3307.213610729247
 20
3803.620095828148
 42
1.0
 10
3307.49771072207
 20
3803.971695819266
 42
1.0
 10
3307.619510718993
 20
3804.340695809944
 42
1.0
 72
     1
 10
3307.619510718993
 20
3804.340695809944
 11
3310.653110642358
 21
3813.502095578507
 72
     1
 10
3310.653110642358
 20
3813.502095578507
 11
3315.922323866748
 21
3813.502095578507
 72
     1
 10
3315.922323866748
 20
3813.502095578507
 11
3312.370010598985
 21
3802.776495849459
 72
     4
 94
        3
 73
     1
 74
     0
 95
       11
 96
        7
 40
0.0
 40
0.0
 40
0.0
 40
0.0
 40
1.0
 40
2.0
 40
3.0
 40
4.0
 40
4.0
 40
4.0
 40
4.0
 10
3312.370010598985
 20
3802.776495849459
 42
1.0
 10
3311.92451061024
 20
3801.431595883433
 42
1.0
 10
3310.990010633847
 20
3800.221695913998
 42
1.0
 10
3309.844610662782
 20
3799.363421943139
 42
1.0
 10
3308.675510692316
 20
3798.48442194314
 42
1.0
 10
3307.247510728391
 20
3797.939595971649
 42
1.0
 10
3305.844110763843
 20
3797.939595971649
 42
1.0
 72
     1
 10
3305.844110763843
 20
3797.939595971649
 11
3298.020410961487
 21
3797.939595971649
 72
     4
 94
        3
 73
     1
 74
     0
 95
       17
 96
       13
 40
0.0
 40
0.0
 40
0.0
 40
0.0
 40
1.0
 40
2.0
 40
3.0
 40
4.0
 40
5.0
 40
6.0
 40
7.0
 40
8.0
 40
9.0
 40
10.0
 40
10.0
 40
10.0
 40
10.0
 10
3298.020410961487
 20
3797.939595971649
 42
1.0
 10
3297.443210976068
 20
3797.939595971649
 42
1.0
 10
3296.898110989838
 20
3798.027495969429
 42
1.0
 10
3296.395911002525
 20
3798.194295965215
 42
1.0
 10
3295.420323866746
 20
3798.516495957076
 42
1.0
 10
3294.635211047004
 20
3799.108421943142
 42
1.0
 10
3294.090111060774
 20
3799.887795922433
 42
1.0
 10
3293.558511074204
 20
3800.652495903116
 42
1.0
 10
3293.26691108157
 20
3801.575295879803
 42
1.0
 10
3293.26691108157
 20
3802.585995854271
 42
1.0
 10
3293.26691108157
 20
3803.148495840061
 42
1.0
 10
3293.362011079168
 20
3803.740421943141
 42
1.0
 10
3293.560011074166
 20
3804.340695809944
 42
1.0
 72
     1
 10
3293.560011074166
 20
3804.340695809944
 11
3304.972610785859
 21
3838.796894939507
 97
        0
 75
     0
 76
     1
 98
        1
 10
0.0
 20
0.0
  0
HATCH
  5
539
330
1F
100
AcDbEntity
  8
0
 62
     7
100
AcDbHatch
 10
0.0
 20
0.0
 30
0.0
210
0.0
220
0.0
230
1.0
  2
SOLID
 70
     1
 71
     0
 91
        1
 92
        0
 93
       21
 72
     1
 10
3486.679006195569
 20
3829.240421943141
 11
3481.387906329234
 21
3829.240421943141
 72
     1
 10
3481.387906329234
 20
3829.240421943141
 11
3484.62370624749
 21
3838.627094943796
 72
     1
 10
3484.62370624749
 20
3838.627094943796
 11
3477.249706433773
 21
3838.627094943796
 72
     4
 94
        3
 73
     1
 74
     0
 95
       11
 96
        7
 40
0.0
 40
0.0
 40
0.0
 40
0.0
 40
1.0
 40
2.0
 40
3.0
 40
4.0
 40
4.0
 40
4.0
 40
4.0
 10
3477.249706433773
 20
3838.627094943796
 42
1.0
 10
3476.939206441618
 20
3838.627094943796
 42
1.0
 10
3476.575906450795
 20
3838.471694947722
 42
1.0
 10
3476.240506459268
 20
3838.219694954089
 42
1.0
 10
3475.881706468332
 20
3837.950294960893
 42
1.0
 10
3475.597606475509
 20
3837.598694969776
 42
1.0
 10
3475.475806478586
 20
3837.232421943138
 42
1.0
 72
     1
 10
3475.475806478586
 20
3837.232421943138
 11
3464.117506765521
 21
3802.943295845246
 72
     1
 10
3464.117506765521
 20
3802.943295845246
 11
3471.494506579162
 21
3802.943295845246
 72
     4
 94
        3
 73
     1
 74
     0
 95
       11
 96
        7
 40
0.0
 40
0.0
 40
0.0
 40
0.0
 40
1.0
 40
2.0
 40
3.0
 40
4.0
 40
4.0
 40
4.0
 40
4.0
 10
3471.494506579162
 20
3802.943295845246
 42
1.0
 10
3471.805006571318
 20
3802.943295845246
 42
1.0
 10
3472.168323866746
 20
3803.101695841244
 42
1.0
 10
3472.503706553667
 20
3803.350695834953
 42
1.0
 10
3472.862506544604
 20
3803.620095828148
 42
1.0
 10
3473.146906537419
 20
3803.971695819266
 42
1.0
 10
3473.268406534349
 20
3804.340695809944
 42
1.0
 72
     1
 10
3473.268406534349
 20
3804.340695809944
 11
3477.46360642837
 21
3817.005795489997
 72
     1
 10
3477.46360642837
 20
3817.005795489997
 11
3472.852323866746
 21
3817.005795489997
 72
     1
 10
3472.852323866746
 20
3817.005795489997
 11
3474.412323866748
 21
3822.012795363509
 72
     1
 10
3474.412323866748
 20
3822.012795363509
 11
3484.390906253371
 21
3822.012795363509
 72
     1
 10
3484.390906253371
 20
3822.012795363509
 11
3483.302506280867
 21
3818.728421943139
 72
     1
 10
3483.302506280867
 20
3818.728421943139
 11
3478.020406414304
 21
3802.776495849459
 72
     4
 94
        3
 73
     1
 74
     0
 95
       11
 96
        7
 40
0.0
 40
0.0
 40
0.0
 40
0.0
 40
1.0
 40
2.0
 40
3.0
 40
4.0
 40
4.0
 40
4.0
 40
4.0
 10
3478.020406414304
 20
3802.776495849459
 42
1.0
 10
3477.573406425596
 20
3801.431595883433
 42
1.0
 10
3476.638906449203
 20
3800.221695913998
 42
1.0
 10
3475.495006478101
 20
3799.363421943139
 42
1.0
 10
3474.324406507673
 20
3798.48442194314
 42
1.0
 10
3472.896406543747
 20
3797.939595971649
 42
1.0
 10
3471.494506579162
 20
3797.939595971649
 42
1.0
 72
     1
 10
3471.494506579162
 20
3797.939595971649
 11
3463.771906774251
 21
3797.939595971649
 72
     4
 94
        3
 73
     1
 74
     0
 95
       17
 96
       13
 40
0.0
 40
0.0
 40
0.0
 40
0.0
 40
1.0
 40
2.0
 40
3.0
 40
4.0
 40
5.0
 40
6.0
 40
7.0
 40
8.0
 40
9.0
 40
10.0
 40
10.0
 40
10.0
 40
10.0
 10
3463.771906774251
 20
3797.939595971649
 42
1.0
 10
3463.194706788833
 20
3797.939595971649
 42
1.0
 10
3462.649606802603
 20
3798.027495969429
 42
1.0
 10
3462.14740681529
 20
3798.194295965215
 42
1.0
 10
3461.173006839905
 20
3798.516495957076
 42
1.0
 10
3460.387906859739
 20
3799.108421943142
 42
1.0
 10
3459.843106873502
 20
3799.887795922433
 42
1.0
 10
3459.310006886969
 20
3800.652495903116
 42
1.0
 10
3459.018406894335
 20
3801.575295879803
 42
1.0
 10
3459.018406894335
 20
3802.585995854271
 42
1.0
 10
3459.018406894335
 20
3803.148495840061
 42
1.0
 10
3459.113506891933
 20
3803.740421943141
 42
1.0
 10
3459.311206886938
 20
3804.340695809944
 42
1.0
 72
     1
 10
3459.311206886938
 20
3804.340695809944
 11
3470.725323866747
 21
3838.796894939507
 72
     4
 94
        3
 73
     1
 74
     0
 95
       11
 96
        7
 40
0.0
 40
0.0
 40
0.0
 40
0.0
 40
1.0
 40
2.0
 40
3.0
 40
4.0
 40
4.0
 40
4.0
 40
4.0
 10
3470.725323866747
 20
3838.796894939507
 42
1.0
 10
3471.170806587339
 20
3840.14149490554
 42
1.0
 10
3472.105323866747
 20
3841.348694875043
 42
1.0
 10
3473.249206534835
 20
3842.209994853285
 42
1.0
 10
3474.419806505263
 20
3843.08899483108
 42
1.0
 10
3475.846606469219
 20
3843.633794817317
 42
1.0
 10
3477.249706433773
 20
3843.633794817317
 42
1.0
 72
     1
 10
3477.249706433773
 20
3843.633794817317
 11
3484.972606238677
 21
3843.633794817317
 72
     4
 94
        3
 73
     1
 74
     0
 95
       17
 96
       13
 40
0.0
 40
0.0
 40
0.0
 40
0.0
 40
1.0
 40
2.0
 40
3.0
 40
4.0
 40
5.0
 40
6.0
 40
7.0
 40
8.0
 40
9.0
 40
10.0
 40
10.0
 40
10.0
 40
10.0
 10
3484.972606238677
 20
3843.633794817317
 42
1.0
 10
3485.571706223542
 20
3843.633794817317
 42
1.0
 10
3486.136906209264
 20
3843.537194819757
 42
1.0
 10
3486.655606196161
 20
3843.358421943142
 42
1.0
 10
3487.603323866748
 20
3843.030194832565
 42
1.0
 10
3488.373706152757
 20
3842.441294847442
 42
1.0
 10
3488.914323866747
 20
3841.665194867048
 42
1.0
 10
3489.44320612574
 20
3840.903194886297
 42
1.0
 10
3489.733323866748
 20
3839.989421943137
 42
1.0
 10
3489.733323866748
 20
3838.996094934475
 42
1.0
 10
3489.733323866748
 20
3838.418894949057
 42
1.0
 10
3489.63520612089
 20
3837.812594964372
 42
1.0
 10
3489.424006126225
 20
3837.203294979765
 42
1.0
 72
     1
 10
3489.424006126225
 20
3837.203294979765
 11
3486.679006195569
 21
3829.240421943141
 97
        0
 75
     0
 76
     1
 98
        1
 10
0.0
 20
0.0
  0
HATCH
  5
53A
330
1F
100
AcDbEntity
  8
0
 62
     7
100
AcDbHatch
 10
0.0
 20
0.0
 30
0.0
210
0.0
220
0.0
230
1.0
  2
ANSI31
 70
     0
 71
     0
 91
        1
 92
        0
 93
        6
 72
     4
 94
        3
 73
     1
 74
     0
 95
       11
 96
        7
 40
0.0
 40
0.0
 40
0.0
 40
0.0
 40
1.0
 40
2.0
 40
3.0
 40
4.0
 40
4.0
 40
4.0
 40
4.0
 10
3372.198409087592
 20
3838.627094943796
 42
1.0
 10
3371.886409095474
 20
3838.627094943796
 42
1.0
 10
3371.524609104614
 20
3838.471694947722
 42
1.0
 10
3371.189209113087
 20
3838.219694954089
 42
1.0
 10
3370.830409122151
 20
3837.950294960893
 42
1.0
 10
3370.544809129366
 20
3837.598694969776
 42
1.0
 10
3370.423009132443
 20
3837.232421943138
 42
1.0
 72
     1
 10
3370.423009132443
 20
3837.232421943138
 11
3359.06620941934
 21
3802.943295845246
 72
     1
 10
3359.06620941934
 20
3802.943295845246
 11
3367.735009200348
 21
3802.943295845246
 72
     4
 94
        3
 73
     1
 74
     0
 95
       11
 96
        7
 40
0.0
 40
0.0
 40
0.0
 40
0.0
 40
1.0
 40
2.0
 40
3.0
 40
4.0
 40
4.0
 40
4.0
 40
4.0
 10
3367.735009200348
 20
3802.943295845246
 42
1.0
 10
3368.045809192496
 20
3802.943295845246
 42
1.0
 10
3368.409109183318
 20
3803.098695841319
 42
1.0
 10
3368.744509174846
 20
3803.350695834953
 42
1.0
 10
3369.103323866748
 20
3803.620095828148
 42
1.0
 10
3369.387409158605
 20
3803.971695819266
 42
1.0
 10
3369.509209155528
 20
3804.340695809944
 42
1.0
 72
     1
 10
3369.509209155528
 20
3804.340695809944
 11
3380.867508868593
 21
3838.627094943796
 72
     1
 10
3380.867508868593
 20
3838.627094943796
 11
3372.198409087592
 21
3838.627094943796
 97
        0
 75
     0
 76
     1
 52
0.0
 41
0.1181102362
 77
     0
 78
     1
 53
45.0
 43
0.0
 44
0.0
 45
-0.2651650429449553
 46
0.2651650429449553
 79
     0
 98
        1
 10
0.0
 20
0.0
  0
HATCH
  5
53B
330
1F
100
AcDbEntity
  8
0
 62
     7
100
AcDbHatch
 10
0.0
 20
0.0
 30
0.0
210
0.0
220
0.0
230
1.0
  2
SOLID
 70
     1
 71
     0
 91
        1
 92
        0
 93
        8
 72
     4
 94
        3
 73
     1
 74
     0
 95
       11
 96
        7
 40
0.0
 40
0.0
 40
0.0
 40
0.0
 40
1.0
 40
2.0
 40
3.0
 40
4.0
 40
4.0
 40
4.0
 40
4.0
 10
3365.672509252451
 20
3838.796894939507
 42
1.0
 10
3366.119509241159
 20
3840.14149490554
 42
1.0
 10
3367.052509217589
 20
3841.348694875043
 42
1.0
 10
3368.197909188654
 20
3842.209994853285
 42
1.0
 10
3369.36700915912
 20
3843.08899483108
 42
1.0
 10
3370.795323866745
 20
3843.633794817317
 42
1.0
 10
3372.198409087592
 20
3843.633794817317
 42
1.0
 72
     1
 10
3372.198409087592
 20
3843.633794817317
 11
3381.213108859862
 21
3843.633794817317
 72
     4
 94
        3
 73
     1
 74
     0
 95
       17
 96
       13
 40
0.0
 40
0.0
 40
0.0
 40
0.0
 40
1.0
 40
2.0
 40
3.0
 40
4.0
 40
5.0
 40
6.0
 40
7.0
 40
8.0
 40
9.0
 40
10.0
 40
10.0
 40
10.0
 40
10.0
 10
3381.213108859862
 20
3843.633794817317
 42
1.0
 10
3381.790323866746
 20
3843.633794817317
 42
1.0
 10
3382.335108831518
 20
3843.542894819612
 42
1.0
 10
3382.839108818786
 20
3843.378794823758
 42
1.0
 10
3383.811708794216
 20
3843.053594831974
 42
1.0
 10
3384.597108774375
 20
3842.464994846843
 42
1.0
 10
3385.141908760612
 20
3841.682594866608
 42
1.0
 10
3385.675008747145
 20
3840.920894885851
 42
1.0
 10
3385.966608739778
 20
3839.995094909238
 42
1.0
 10
3385.966608739778
 20
3838.987421943141
 42
1.0
 10
3385.966608739778
 20
3838.42189494898
 42
1.0
 10
3385.871508742181
 20
3837.829994963933
 42
1.0
 10
3385.672323866748
 20
3837.232421943138
 42
1.0
 72
     1
 10
3385.672323866748
 20
3837.232421943138
 11
3374.25970903552
 21
3802.776495849459
 72
     4
 94
        3
 73
     1
 74
     0
 95
       11
 96
        7
 40
0.0
 40
0.0
 40
0.0
 40
0.0
 40
1.0
 40
2.0
 40
3.0
 40
4.0
 40
4.0
 40
4.0
 40
4.0
 10
3374.25970903552
 20
3802.776495849459
 42
1.0
 10
3373.814209046774
 20
3801.431595883433
 42
1.0
 10
3372.879709070381
 20
3800.221695913998
 42
1.0
 10
3371.734323866746
 20
3799.363421943139
 42
1.0
 10
3370.565209128851
 20
3798.48442194314
 42
1.0
 10
3369.136909164932
 20
3797.939595971649
 42
1.0
 10
3367.735009200348
 20
3797.939595971649
 42
1.0
 72
     1
 10
3367.735009200348
 20
3797.939595971649
 11
3358.719109428108
 21
3797.939595971649
 72
     4
 94
        3
 73
     1
 74
     0
 95
       17
 96
       13
 40
0.0
 40
0.0
 40
0.0
 40
0.0
 40
1.0
 40
2.0
 40
3.0
 40
4.0
 40
5.0
 40
6.0
 40
7.0
 40
8.0
 40
9.0
 40
10.0
 40
10.0
 40
10.0
 40
10.0
 10
3358.719109428108
 20
3797.939595971649
 42
1.0
 10
3358.141909442689
 20
3797.939595971649
 42
1.0
 10
3357.597109456452
 20
3798.027495969429
 42
1.0
 10
3357.094609469146
 20
3798.194295965215
 42
1.0
 10
3356.120509493755
 20
3798.516495957076
 42
1.0
 10
3355.335109513596
 20
3799.108421943142
 42
1.0
 10
3354.790323866746
 20
3799.887795922433
 42
1.0
 10
3354.257209540825
 20
3800.652495903116
 42
1.0
 10
3353.967109548154
 20
3801.575295879803
 42
1.0
 10
3353.967109548154
 20
3802.585995854271
 42
1.0
 10
3353.967109548154
 20
3803.148495840061
 42
1.0
 10
3354.06070954579
 20
3803.740421943141
 42
1.0
 10
3354.26020954075
 20
3804.340695809944
 42
1.0
 72
     1
 10
3354.26020954075
 20
3804.340695809944
 11
3365.672509252451
 21
3838.796894939507
 97
        0
 75
     0
 76
     1
 98
        1
 10
0.0
 20
0.0
  0
HATCH
  5
53C
330
1F
100
AcDbEntity
  8
0
 62
     7
100
AcDbHatch
 10
0.0
 20
0.0
 30
0.0
210
0.0
220
0.0
230
1.0
  2
ANSI31
 70
     0
 71
     0
 91
        1
 92
        0
 93
        6
 72
     4
 94
        3
 73
     1
 74
     0
 95
       11
 96
        7
 40
0.0
 40
0.0
 40
0.0
 40
0.0
 40
1.0
 40
2.0
 40
3.0
 40
4.0
 40
4.0
 40
4.0
 40
4.0
 10
3340.984323866746
 20
3838.627094943796
 42
1.0
 10
3340.673509883979
 20
3838.627094943796
 42
1.0
 10
3340.310209893157
 20
3838.471694947722
 42
1.0
 10
3339.974809901629
 20
3838.219694954089
 42
1.0
 10
3339.616009910694
 20
3837.950294960893
 42
1.0
 10
3339.33190991787
 20
3837.598694969776
 42
1.0
 10
3339.210109920947
 20
3837.232421943138
 42
1.0
 72
     1
 10
3339.210109920947
 20
3837.232421943138
 11
3327.851810207882
 21
3802.943295845246
 72
     1
 10
3327.851810207882
 20
3802.943295845246
 11
3336.520909988882
 21
3802.943295845246
 72
     4
 94
        3
 73
     1
 74
     0
 95
       11
 96
        7
 40
0.0
 40
0.0
 40
0.0
 40
0.0
 40
1.0
 40
2.0
 40
3.0
 40
4.0
 40
4.0
 40
4.0
 40
4.0
 10
3336.520909988882
 20
3802.943295845246
 42
1.0
 10
3336.832909981001
 20
3802.943295845246
 42
1.0
 10
3337.19470997186
 20
3803.098695841319
 42
1.0
 10
3337.530109963388
 20
3803.350695834953
 42
1.0
 10
3337.888909954323
 20
3803.620095828148
 42
1.0
 10
3338.174509947109
 20
3803.971695819266
 42
1.0
 10
3338.296323866747
 20
3804.340695809944
 42
1.0
 72
     1
 10
3338.296323866747
 20
3804.340695809944
 11
3349.653109657135
 21
3838.627094943796
 72
     1
 10
3349.653109657135
 20
3838.627094943796
 11
3340.984323866746
 21
3838.627094943796
 97
        0
 75
     0
 76
     1
 52
0.0
 41
0.1181102362
 77
     0
 78
     1
 53
45.0
 43
0.0
 44
0.0
 45
-0.2651650429449553
 46
0.2651650429449553
 79
     0
 98
        1
 10
0.0
 20
0.0
  0
HATCH
  5
53D
330
1F
100
AcDbEntity
  8
0
 62
     7
100
AcDbHatch
 10
0.0
 20
0.0
 30
0.0
210
0.0
220
0.0
230
1.0
  2
SOLID
 70
     1
 71
     0
 91
        1
 92
        0
 93
        8
 72
     4
 94
        3
 73
     1
 74
     0
 95
       11
 96
        7
 40
0.0
 40
0.0
 40
0.0
 40
0.0
 40
1.0
 40
2.0
 40
3.0
 40
4.0
 40
4.0
 40
4.0
 40
4.0
 10
3334.459910040948
 20
3838.796894939507
 42
1.0
 10
3334.905110029701
 20
3840.14149490554
 42
1.0
 10
3335.839610006093
 20
3841.348694875043
 42
1.0
 10
3336.983809977188
 20
3842.209994853285
 42
1.0
 10
3338.154109947624
 20
3843.08899483108
 42
1.0
 10
3339.58090991158
 20
3843.633794817317
 42
1.0
 10
3340.984323866746
 20
3843.633794817317
 42
1.0
 72
     1
 10
3340.984323866746
 20
3843.633794817317
 11
3350.000209648367
 21
3843.633794817317
 72
     4
 94
        3
 73
     1
 74
     0
 95
       17
 96
       13
 40
0.0
 40
0.0
 40
0.0
 40
0.0
 40
1.0
 40
2.0
 40
3.0
 40
4.0
 40
5.0
 40
6.0
 40
7.0
 40
8.0
 40
9.0
 40
10.0
 40
10.0
 40
10.0
 40
10.0
 10
3350.000209648367
 20
3843.633794817317
 42
1.0
 10
3350.577409633785
 20
3843.633794817317
 42
1.0
 10
3351.121009620053
 20
3843.542894819612
 42
1.0
 10
3351.624709607328
 20
3843.378794823758
 42
1.0
 10
3352.59880958272
 20
3843.053594831974
 42
1.0
 10
3353.38420956288
 20
3842.464994846843
 42
1.0
 10
3353.929009549116
 20
3841.682594866608
 42
1.0
 10
3354.462109535649
 20
3840.920894885851
 42
1.0
 10
3354.75220952832
 20
3839.995094909238
 42
1.0
 10
3354.75220952832
 20
3838.987421943141
 42
1.0
 10
3354.75220952832
 20
3838.42189494898
 42
1.0
 10
3354.658609530685
 20
3837.829994963933
 42
1.0
 10
3354.459409535717
 20
3837.232421943138
 42
1.0
 72
     1
 10
3354.459409535717
 20
3837.232421943138
 11
3343.046809824023
 21
3802.776495849459
 72
     4
 94
        3
 73
     1
 74
     0
 95
       11
 96
        7
 40
0.0
 40
0.0
 40
0.0
 40
0.0
 40
1.0
 40
2.0
 40
3.0
 40
4.0
 40
4.0
 40
4.0
 40
4.0
 10
3343.046809824023
 20
3802.776495849459
 42
1.0
 10
3342.599809835316
 20
3801.431595883433
 42
1.0
 10
3341.666809858886
 20
3800.221695913998
 42
1.0
 10
3340.521409887821
 20
3799.363421943139
 42
1.0
 10
3339.352323866746
 20
3798.48442194314
 42
1.0
 10
3337.924009953437
 20
3797.939595971649
 42
1.0
 10
3336.520909988882
 20
3797.939595971649
 42
1.0
 72
     1
 10
3336.520909988882
 20
3797.939595971649
 11
3327.506210216612
 21
3797.939595971649
 72
     4
 94
        3
 73
     1
 74
     0
 95
       17
 96
       13
 40
0.0
 40
0.0
 40
0.0
 40
0.0
 40
1.0
 40
2.0
 40
3.0
 40
4.0
 40
5.0
 40
6.0
 40
7.0
 40
8.0
 40
9.0
 40
10.0
 40
10.0
 40
10.0
 40
10.0
 10
3327.506210216612
 20
3797.939595971649
 42
1.0
 10
3326.929010231194
 20
3797.939595971649
 42
1.0
 10
3326.384210244957
 20
3798.027495969429
 42
1.0
 10
3325.881710257651
 20
3798.194295965215
 42
1.0
 10
3324.907610282259
 20
3798.516495957076
 42
1.0
 10
3324.122510302092
 20
3799.108421943142
 42
1.0
 10
3323.577410315863
 20
3799.887795922433
 42
1.0
 10
3323.044323866747
 20
3800.652495903116
 42
1.0
 10
3322.752710336696
 20
3801.575295879803
 42
1.0
 10
3322.752710336696
 20
3802.585995854271
 42
1.0
 10
3322.752710336696
 20
3803.148495840061
 42
1.0
 10
3322.847810334293
 20
3803.740421943141
 42
1.0
 10
3323.047323866748
 20
3804.340695809944
 42
1.0
 72
     1
 10
3323.047323866748
 20
3804.340695809944
 11
3334.459910040948
 21
3838.796894939507
 97
        0
 75
     0
 76
     1
 98
        1
 10
0.0
 20
0.0
  0
ENDSEC
  0
SECTION
  2
OBJECTS
  0
DICTIONARY
  5
C
330
0
100
AcDbDictionary
281
     1
  3
ACAD_GROUP
350
D
  3
ACAD_LAYOUT
350
1A
  3
ACAD_MLINESTYLE
350
17
  3
ACAD_PLOTSETTINGS
350
19
  3
ACAD_PLOTSTYLENAME
350
E
  3
ACAD_SCALELIST
350
47
  3
DWGPROPS
350
53E
  0
DICTIONARY
  5
D
102
{ACAD_REACTORS
330
C
102
}
330
C
100
AcDbDictionary
281
     1
  0
DICTIONARY
  5
1A
102
{ACAD_REACTORS
330
C
102
}
330
C
100
AcDbDictionary
281
     1
  3
Layout1
350
1E
  3
Layout2
350
26
  3
Model
350
22
  0
DICTIONARY
  5
17
102
{ACAD_REACTORS
330
C
102
}
330
C
100
AcDbDictionary
281
     1
  3
Standard
350
18
  0
DICTIONARY
  5
19
102
{ACAD_REACTORS
330
C
102
}
330
C
100
AcDbDictionary
281
     1
  0
ACDBDICTIONARYWDFLT
  5
E
102
{ACAD_REACTORS
330
C
102
}
330
C
100
AcDbDictionary
281
     1
  3
Normal
350
F
100
AcDbDictionaryWithDefault
340
F
  0
DICTIONARY
  5
47
102
{ACAD_REACTORS
330
C
102
}
330
C
100
AcDbDictionary
281
     1
  3
A0
350
48
  3
A1
350
49
  3
A2
350
4A
  3
A3
350
4B
  3
A4
350
4C
  3
A5
350
4D
  3
A6
350
4E
  3
A7
350
4F
  3
A8
350
50
  3
A9
350
51
  3
B0
350
52
  3
B1
350
53
  3
B2
350
54
  3
B3
350
55
  3
B4
350
56
  3
B5
350
57
  3
B6
350
58
  0
XRECORD
  5
53E
102
{ACAD_REACTORS
330
C
102
}
330
C
100
AcDbXrecord
280
     1
  1
DWGPROPS COOKIE
  2

  3

  4

  6

  7

  8
MitchelvanderVlugt
  9

300
=
301
=
302
=
303
=
304
=
305
=
306
=
307
=
308
=
309
=
 40
0.0
 41
2461155.261234364
 42
2461155.261237905
  1

 90
        0
  0
LAYOUT
  5
1E
102
{ACAD_REACTORS
330
1A
102
}
330
1A
100
AcDbPlotSettings
  1

  2
none_device
  4

  6

 40
0.0
 41
0.0
 42
0.0
 43
0.0
 44
0.0
 45
0.0
 46
0.0
 47
0.0
 48
0.0
 49
0.0
140
0.0
141
0.0
142
1.0
143
1.0
 70
   688
 72
     1
 73
     0
 74
     5
  7

 75
    16
147
1.0
148
0.0
149
0.0
100
AcDbLayout
  1
Layout1
 70
     1
 71
     1
 10
0.0
 20
0.0
 11
420.0
 21
297.0
 12
0.0
 22
0.0
 32
0.0
 14
1.0000000000E+20
 24
1.0000000000E+20
 34
1.0000000000E+20
 15
-1.0000000000E+20
 25
-1.0000000000E+20
 35
-1.0000000000E+20
146
0.0
 13
0.0
 23
0.0
 33
0.0
 16
1.0
 26
0.0
 36
0.0
 17
0.0
 27
1.0
 37
0.0
 76
     0
330
1B
  0
LAYOUT
  5
26
102
{ACAD_REACTORS
330
1A
102
}
330
1A
100
AcDbPlotSettings
  1

  2
none_device
  4

  6

 40
0.0
 41
0.0
 42
0.0
 43
0.0
 44
0.0
 45
0.0
 46
0.0
 47
0.0
 48
0.0
 49
0.0
140
0.0
141
0.0
142
1.0
143
1.0
 70
   688
 72
     1
 73
     0
 74
     5
  7

 75
    16
147
1.0
148
0.0
149
0.0
100
AcDbLayout
  1
Layout2
 70
     1
 71
     2
 10
0.0
 20
0.0
 11
0.0
 21
0.0
 12
0.0
 22
0.0
 32
0.0
 14
0.0
 24
0.0
 34
0.0
 15
0.0
 25
0.0
 35
0.0
146
0.0
 13
0.0
 23
0.0
 33
0.0
 16
1.0
 26
0.0
 36
0.0
 17
0.0
 27
1.0
 37
0.0
 76
     0
330
23
  0
LAYOUT
  5
22
102
{ACAD_REACTORS
330
1A
102
}
330
1A
100
AcDbPlotSettings
  1

  2
none_device
  4
Letter_(8.50_x_11.00_Inches)
  6

 40
6.35
 41
6.35
 42
6.35000508
 43
6.35000508
 44
215.9
 45
279.4
 46
0.0
 47
0.0
 48
0.0
 49
0.0
140
0.0
141
0.0
142
1.0
143
1.0
 70
  1712
 72
     1
 73
     0
 74
     0
  7

 75
     0
147
1.0
148
0.0
149
0.0
100
AcDbLayout
  1
Model
 70
     1
 71
     0
 10
0.0
 20
0.0
 11
4200.0
 21
4200.0
 12
0.0
 22
0.0
 32
0.0
 14
0.0
 24
0.0
 34
0.0
 15
4200.0
 25
4200.0
 35
0.0
146
0.0
 13
0.0
 23
0.0
 33
0.0
 16
1.0
 26
0.0
 36
0.0
 17
0.0
 27
1.0
 37
0.0
 76
     0
330
1F
331
29
  0
MLINESTYLE
  5
18
102
{ACAD_REACTORS
330
17
102
}
330
17
100
AcDbMlineStyle
  2
Standard
 70
     0
  3

 62
   256
 51
90.0
 52
90.0
 71
     2
 49
0.5
 62
   256
  6
BYLAYER
 49
-0.5
 62
   256
  6
BYLAYER
  0
ACDBPLACEHOLDER
  5
F
102
{ACAD_REACTORS
330
E
102
}
330
E
  0
SCALE
  5
48
102
{ACAD_REACTORS
330
47
102
}
330
47
100
AcDbScale
 70
     0
300
1:1
140
1.0
141
1.0
290
     1
  0
SCALE
  5
49
102
{ACAD_REACTORS
330
47
102
}
330
47
100
AcDbScale
 70
     0
300
1:2
140
1.0
141
2.0
290
     0
  0
SCALE
  5
4A
102
{ACAD_REACTORS
330
47
102
}
330
47
100
AcDbScale
 70
     0
300
1:4
140
1.0
141
4.0
290
     0
  0
SCALE
  5
4B
102
{ACAD_REACTORS
330
47
102
}
330
47
100
AcDbScale
 70
     0
300
1:5
140
1.0
141
5.0
290
     0
  0
SCALE
  5
4C
102
{ACAD_REACTORS
330
47
102
}
330
47
100
AcDbScale
 70
     0
300
1:8
140
1.0
141
8.0
290
     0
  0
SCALE
  5
4D
102
{ACAD_REACTORS
330
47
102
}
330
47
100
AcDbScale
 70
     0
300
1:10
140
1.0
141
10.0
290
     0
  0
SCALE
  5
4E
102
{ACAD_REACTORS
330
47
102
}
330
47
100
AcDbScale
 70
     0
300
1:16
140
1.0
141
16.0
290
     0
  0
SCALE
  5
4F
102
{ACAD_REACTORS
330
47
102
}
330
47
100
AcDbScale
 70
     0
300
1:20
140
1.0
141
20.0
290
     0
  0
SCALE
  5
50
102
{ACAD_REACTORS
330
47
102
}
330
47
100
AcDbScale
 70
     0
300
1:30
140
1.0
141
30.0
290
     0
  0
SCALE
  5
51
102
{ACAD_REACTORS
330
47
102
}
330
47
100
AcDbScale
 70
     0
300
1:40
140
1.0
141
40.0
290
     0
  0
SCALE
  5
52
102
{ACAD_REACTORS
330
47
102
}
330
47
100
AcDbScale
 70
     0
300
1:50
140
1.0
141
50.0
290
     0
  0
SCALE
  5
53
102
{ACAD_REACTORS
330
47
102
}
330
47
100
AcDbScale
 70
     0
300
1:100
140
1.0
141
100.0
290
     0
  0
SCALE
  5
54
102
{ACAD_REACTORS
330
47
102
}
330
47
100
AcDbScale
 70
     0
300
2:1
140
2.0
141
1.0
290
     0
  0
SCALE
  5
55
102
{ACAD_REACTORS
330
47
102
}
330
47
100
AcDbScale
 70
     0
300
4:1
140
4.0
141
1.0
290
     0
  0
SCALE
  5
56
102
{ACAD_REACTORS
330
47
102
}
330
47
100
AcDbScale
 70
     0
300
8:1
140
8.0
141
1.0
290
     0
  0
SCALE
  5
57
102
{ACAD_REACTORS
330
47
102
}
330
47
100
AcDbScale
 70
     0
300
10:1
140
10.0
141
1.0
290
     0
  0
SCALE
  5
58
102
{ACAD_REACTORS
330
47
102
}
330
47
100
AcDbScale
 70
     0
300
100:1
140
100.0
141
1.0
290
     0
  0
ENDSEC
  0
EOF
